rock
 
|tablatures   |lyrics   |discussion forums   |more tabs @ XGuitar.com

Green Day tabs

Sick Of Me bass tab

Verse
G|---------------------------------|
D|---------------------------------|
A|-----------------5-5-------------|
E|-5-5-5-5-5-5-5-5-----3-3-3-3-5-5-|

Chorus
G|------------------------------------|
D|------------------------------------|
A|-3-3-3-3---------5-5----3-3---------|
E|----------3-3-3-3----3-3----5-5-5-5-|

Bridge
G|-------------|
D|-------------|
A|-------------|
E|-5-5-5-5/8-8-|

thats all that is played.

the order is easy to figure out so i'll leave that up to you.
  development and support by
dmitry ivanov