rock
 
|tablatures   |lyrics   |discussion forums   |more tabs @ XGuitar.com

Green Day tabs

Shes A Rebel bass tab

Green day - she's a rebel
Tabbed By: Matt McWilliams
Email: pattymc13@comcast.net

Tuning: Standard (E A D G)

this is right!!

verse 1
G|------------------
D|------------------  x2
A|----------55-33---
E|-33-33-33---------

verse 2
G|--------------------------------
D|--------------------------------  x5
A|----33---33---33-55-33----------
E|-333--333--333------------------

chorus
G|--------------------------------
D|--------------------------------  x2
A|-7777------3333-----------------
E|------7777------3333------------

verse 2
G|--------------------------------
D|--------------------------------  x2
A|----33---33---33-55-33----------
E|-333--333--333------------------

chorus
G|--------------------------------
D|--------------------------------  x2
A|-7777------3333-----------------
E|------7777------3333------------

verse 1
G|------------------
D|------------------  x2
A|----------55-33---
E|-33-33-33---------
verse 2
G|--------------------------------
D|--------------------------------  x4
A|----33---33---33-55-33----------
E|-333--333--333------------------
  development and support by
dmitry ivanov