rock
 
|tablatures   |lyrics   |discussion forums   |more tabs @ XGuitar.com

Green Day tabs

She guitar tab


Date: Mon, June 28 1999
From: Peter Ferragine (pferragine@interhop.net)
Group: Green Day
Album: Dookie
Released: 1994 reprise records
Track: 8
Title: she

pm - palm mute


chorus

|-----------------------------------------|
|-----------------------------------------|
|-6-6-6-6-6-6-6-6-4-4-4-4-4-4-------------|
|-6-6-6-6-6-6-6-6-4-4-4-4-4-4-4-4-4-4-4-4-|
|-4-4-4-4-4-4-4-4-2-2-2-2-2-2-4-4-4-4-4-4-|
|-----------------------------2-2-2-2-2-2-|

|-------------------------------------------------------------
|-------------------------------------------------------------
|-4-4-4-4-4-4-------------4-4-4-4-4-4-------------4-4-4-4-4-4-
|-4-4-4-4-4-4-4-4-4-4-4-4-4-4-4-4-4-4-4-4-4-4-4-4-4-4-4-4-4-4-
|-2-2-2-2-2-2-4-4-4-4-4-4-2-2-2-2-2-2-4-4-4-4-4-4-2-2-2-2-2-2-
|-------------2-2-2-2-2-2-------------2-2-2-2-2-2-------------

 -------------------------|
 -------------------------|
 -------------6-6-6-6-6-6-|
 -4-4-4-4-4-4-6-6-6-6-6-6-|
 -4-4-4-4-4-4-4-4-4-4-4-4-|
 -2-2-2-2-2-2-------------|

verse
pm________________________________________________________________|
|-----------------------------------------------------------------|
|-----------------------------------------------------------------|
|-----------------6-6-6-6-6-6-6-6-4-4-4-4-4-4-4-4-------4---------|
|-4-4-4-4-4-4-4-4-6-6-6-6-6-6-6-6-4-4-4-4-4-4-4-4-4-4-4-4-4-4-4-4-|
|-4-4-4-4-4-4-4-4-4-4-4-4-4-4-4-4-2-2-2-2-2-2-2-2-4-4-4-2-4-4-4-4-|
|-2-2-2-2-2-2-2-2---------------------------------2-2-2---2-2-2-2-|

lyrics

she screams in silence
a sullen riot penetrating through her mind
waiting, for a sign 
to smash the silence with the brick of self control
are you locked up in a world that's been planned out for you?
are you feeling like a social tool without a use?
scream at me, until my ears bleed
i'm taking heed just for you
she's figured out all her doubts
were someone else's point of view
waking up this time to smash
the silence with the brick of self control
  development and support by
dmitry ivanov