rock
 
|tablatures   |lyrics   |discussion forums   |more tabs @ XGuitar.com

Green Day tabs

Scumbag bass tab

Green Day-Scumbag
Tabbed by:John Day
E-Mail:ZerOBlinK@hotmail.com

tuning-standard

im almost 100% sure this is the correct tab
but this is my first time submitting a tab.

verse

G---------------------------------------------------------
D-------------------------------222222--0-2---------------
A------222222-------222222-0-2----------------------------
E-0-2----------0-2---------------------------000000-------

chorus/During Solo

G--------------------------------------------------------------------
D---------------------------------------4----------------------------
A----------------------2-2-2-2-2-2-2-2-------------------------------
E--2--4-4-4-4-4-4--22----------------------0-0-0-0--4-4-4-4-2-2-2-2-2

order
verse x 2
chorus x 1 (pause)
verse x 2
chorus x 1 (keep playing -2- on the E string untill the pause)
solo x 1 (play verse x 2)
chorus X 1 (keep playing -2- on the E string untill the pause)
  development and support by
dmitry ivanov