rock
 
|tablatures   |lyrics   |discussion forums   |more tabs @ XGuitar.com

Green Day tabs

Sassafras Roots bass tab

Green Day - Dookie - Sassafras Roots

Intro
G-------------------
D-------------------
A--4----------------
E-------4-----6-----

Verse
G------------------------------------------------------------------------
D---------------------5-6---8-8/10\8----------------------6-5---8-8-6-5--
A-----------6-4-3-4-4-----6---------------------6-4-3-4-4-----6----------
E-4-4-4-4-4---------------------------4-4-4-4-4--------------------------

Chorus     X2
G-------------|-----------------------
D-------------|-------5-6-------------
A-4-4-4-------|-4-4-4-----------------
E-------4--6--|-----------4-4-4-6-6-6-

Bridge
G------------------------------------------------------------
D-----------------------33-44-55---------------------8-6-5-6-
A------4--3-2-1------4----------------4-4-4-6-6-6-6----------
E-4-4-4---------4-4-4-----------4-4-4------------------------

Outro
G------------------------------------
D-------5-6--------------8-6-7-8-8---
A-4-4-4------------------------------
E-----------4-4-4-4-6-6-6------------



No wonder why no one has done this , quite hard.
This took me quite some time , might not be spot on but sounds like it.
Comments, questions or suggestions e-mail jah@notme.com

by me , JAH 	
  development and support by
dmitry ivanov