rock
 
|tablatures   |lyrics   |discussion forums   |more tabs @ XGuitar.com

Green Day tabs

Road To Acceptance guitar tab


Date: Sat, January 9 1999
From: Peter Ferragine (pferragine@interhop.net)
Group: Green Day
Album: 1039/smoothed out slappy hours
Released: 1990 lookout records
Track: 8
Title: road to acceptance

: - let ring 


intro - sounds close

|---------------------------------------------------|---------|-------------|
|---------------------------------------------------|---------|-15-15-15-15-|
|-6-6-6-7-7-7-7-6-6-6-7-7-7-7-6-6-6-7-7-7-7-9-9-9-9-|-7-7-7-7-|-14-14-14-14-|
|-4-4-4-5-5-5-5-4-4-4-5-5-5-5-4-4-4-5-5-5-5-7-7-7-7-|-5-5-5-5-|-12-12-12-12-|
|---------------------------------------------------|---------|-------------|
|---------------------------------------------------|---------|-------------|

pre chorus

|-------------------------------------------------|
|-------------------------------------------------|
|-4-4-4-4-4-4-4-4-4-----------------------7-7-----|
|-4-4-4-4-4-4-4-4-4-7-7-7-7-7-7-7-7-7-4-4-7-7-7-7-|
|-2-2-2-2-2-2-2-2-2-7-7-7-7-7-7-7-7-7-4-4-5-5-7-7-|
|-------------------5-5-5-5-5-5-5-5-5-2-2-----5-5-|

chorus

|-----------------------------------------------------------------|
|-----------------------------------------------------------------|
|-7-7-7-7-7-7-7-7-5-5-5-5-5-5-5-5-----------------7-7-7-7-7-7-7-7-|
|-7-7-7-7-7-7-7-7-5-5-5-5-5-5-5-5-7-7-7-7-7-7-7-7-7-7-7-7-7-7-7-7-|
|-5-5-5-5-5-5-5-5-3-3-3-3-3-3-3-3-7-7-7-7-7-7-7-7-5-5-5-5-5-5-5-5-|
|---------------------------------5-5-5-5-5-5-5-5-----------------|

|---------------------------------------------|
|---------------------------------------------|
|-5-5-5-5---------5-5-5-5---------5-5-5-5-----|
|-5-5-5-5-5-5-5-5-5-5-5-5-5-5-5-5-5-5-5-5-5:--|
|-3-3-3-3-5-5-5-5-3-3-3-3-5-5-5-5-3-3-3-3-5:--|
|---------3-3-3-3---------3-3-3-3---------3:--|

outro 

|--------------------------------------|
|--------------------------------------|
|-5-4----5-4----5-4--------------7:----|
|-5-4-5--5-4-5--5-4-5------------7:----|
|-3-2-5--3-2-5--3-2-5------------5:----|
|-----3------3------3------------------|

lyrics

i always waste my time just wondering what the next man thinks of me
i'll never do exactly what i want 
and i'll sculpt my life for your acceptance
i feel forgotten feel like rotting (do you feel the same)
adolescence just can't make sense (it's calling my name)
i take a look around and all the things i've found
i call it blind hatred
if you'd stop a while, and maybe if you'd smile
you would realize that we're all the same
it's just like our brain when it goes insane we feel the same pain
all my life i've seem to have this need
i think at times it even turns to greed
we all want to join some family
we'll even sacrifice a moral changing
  development and support by
dmitry ivanov