rock
 
|tablatures   |lyrics   |discussion forums   |more tabs @ XGuitar.com

Green Day tabs

Road To Acceptance bass tab

I didn't find any tab for this song, so I decided
to make one. Suggestions -> mfgj@zipmail.com.br

Song: Road to Acceptance
Artist: Green Day
Album: 39/Smooth

Intro:
------

G------------------------------7-5-4h5p4-
D----------------------------------------
A--5-5-5-5-5-5-5-5-5-5-5-5-5-5-----------
E----------------------------------------

Verse 1:
--------

G-----------------------------------------
D-----------------------------------------
A---5-5-5-5-5-5-5-5-5-5-5-5-5-5-5-5-5-----
E-----------------------------------------

Chorus 1:
---------

G-----------------------------------------
D-----------------------------------------
A--2-2-2-2-2-2-2-2-0-0-0-0-0-0-0-0-0------
E-----------------------------------------

G----------------
D---------------- repeat 2x
A-------5----2---
E--2--------------

Then chorus 1 again

Verse 2:
--------

G-------------------------------
D-------------------------4h5---
A--5-5--5-5-5--5--5-5--5h7------
E-------------------------------

G-------------------------------
D-------------------------2h3---
A--3-3--3-3-3--3--3-3--3h5------
E-------------------------------

G-------------------------------
D-------------------------------
A-------------------------------
E--3-3--3-3-3--3--3-3--3-3-3----

G---------------------7-5-4h5p4-
D-------------------------------
A--5-5--5-5-5--5--5-5-----------
E-------------------------------

G-------------------------------
D-------------------------4h5---
A--5-5--5-5-5--5--5-5--5h7------
E-------------------------------

G-------------------------------
D-------------------------2h3---
A--3-3--3-3-3--3--3-3--3h5------
E-------------------------------

G--------------------------------------
D--------------------------------------
A----------------------5-5-5--3--5-5---
E--3-3--3-3-3--3--3-3------------------

Chorus 2:
---------

G-----------------------------------------
D-----------------------------------------
A---3-3-3-------3-3-3-------3-3-3---------
E---------3-3-3-------3-3-3-------3-3~~---

Then intro
Then verse 1
Then chorus 1 (2x)

Then verse 2 played with some variations:

G-------------------------------
D-------------------------4h5---
A--5-5--5-5-5--5--5-5--5h7------
E-------------------------------

G-------------------------------
D-------------------------2h3---
A--3-3--3-3-3--3--3-3--3h5------
E-------------------------------

G-------------------------------
D-------------------------------
A-------------------------------
E--3-3--3-3-3--3--3-3--3-3-3----

G-----------------------4-5-7-5-4----
D---------------------5-----------5--
A--5-5--5-5-5--5--5-5----------------
E------------------------------------

G-------------------------------
D-------------------------4h5---
A--5-5--5-5-5--5--5-5--5h7------
E-------------------------------

G-------------------------------
D---------------------5-3-2-----
A--3-3--3-3-3--3--3-3-------5---
E-------------------------------

G--------------------------------------
D--------------------------------------
A----------------------5-5-5--3--5-5---
E--3-3--3-3-3--3--3-3------------------

Then chorus 2

Then verse 2 played with some variations:

G-------------------------------
D-------------------------4h5---
A--5-5--5-5-5--5--5-5--5h7------
E-------------------------------

G-------------------------------
D-------------------------2h3---
A--3-3--3-3-3--3--3-3--3h5------
E-------------------------------

G-------------------------------
D-------------------------------
A-------------------------------
E--3-3--3-3-3--3--3-3--3-3-3----

G---------------------7-5-4h5p4-
D-------------------------------
A--5-5--5-5-5--5--5-5-----------
E-------------------------------

G-------------------------------
D-------------------------4h5---
A--5-5--5-5-5--5--5-5--5h7------
E-------------------------------

G---------------------------------
D--------------------------2-3-5--
A--3-3--3-3-3--3--3-3--3-5--------
E---------------------------------

G-------------------------------
D-------------------------------
A-------------------------------
E--3-3--3-3-3--3--3-3--3-3-3----

G-----------------------4-5-7-5-4----
D---------------------5-----------5--
A--5-5--5-5-5--5--5-5----------------
E------------------------------------

G-------------------------------
D-------------------------4h5---
A--5-5--5-5-5--5--5-5--5h7------
E-------------------------------

G-------------------------------
D-------------------------2h3---
A--3-3--3-3-3--3--3-3--3h5------
E-------------------------------

G-------------------------------
D-------------------------------
A-------------------------------
E--3-3--3-3-3--3--3-3--3-3-3----

G---------------------7-5-4h5p4-
D-------------------------------
A--5-5--5-5-5--5--5-5-----------
E-------------------------------

G-------------------------------
D-------------------------4h5---
A--5-5--5-5-5--5--5-5--5h7------
E-------------------------------

G-------------------------------
D---------------------5-3-2-----
A--3-3--3-3-3--3--3-3-------5---
E-------------------------------

G--------------------------------------
D--------------------------------------
A----------------------5-5-5--3--5-5---
E--3-3--3-3-3--3--3-3------------------

Then chorus 2

Outro:
------

G---------------
D--------------- repeat 3x
A---3-3-3-2-----
E-----------3---

Wait a delay, or something like that, then:

G---------------
D---------------
A---5~~~~~~~~---
E---------------
  development and support by
dmitry ivanov