rock
 
|tablatures   |lyrics   |discussion forums   |more tabs @ XGuitar.com

Green Day tabs

Rest bass tab

I didn't find any tab for this song, so I decided
to make one. Suggestions -> mfgj@zipmail.com.br

Song: Rest
Artist: Green Day
Album: 39/Smooth

Intro:
------
               3x          2x          3x          2x
G-------|---------------|-------|---------------|-------
D-------|--------5------|-------|--------5------|-------
A----3--|----5-----5----|----3--|----5-----5----|----3--
E--1----|--3---3-----3--|--1----|--3---3-----3--|--1----

Verse:
------
       4x              2x            6x              2x            2x
G---------------|-------------|---------------|-------------|---------------
D--------5------|--------3----|--------5------|--------3----|--------5------
A----5-----5----|----3-----3--|----5-----5----|----3-----3--|----5-----5----
E--3---3-----3--|--1----------|--3---3-----3--|--1----------|--3---3-----3--

Chorus:
-------

G-------------------------------
D--------8--------------7-------
A----8-----8--------7-----7-----
E--6--------------5-------------

Bridge:
-------

       3x          2x          3x
G---------------|-------|---------------|------------
D--------5------|-------|--------5------|-------3----
A----5-----5----|----3--|----5-----5----|----3----3--
E--3---3-----3--|--1----|--3---3-----3--|--1---------

Then verse
Then chorus

Interlude:
----------

       4x                     2x
G---------------|---------------------------|
D--------5------|--------8-----------7------|
A----5-----5----|----8-----------7----------|
E--3---3-----3--|--6-------6-6-5-------5-5--|

                                        3x             2x
G------------------------------|--------------------|-------
D--------8------------10-------|----------12--------|-------
A----8-----------10------10----|----12-------12-----|----3--
E--6-------6-6-8----8-------8--|-10----10-------10--|--1----

Then verse
Then chorus

Outro:
------

       4x
G---------------|---------------------------------------
D--------5------|--------8------------------------------
A----5-----5----|----8-----8--------7-------------------
E--3---3-----3--|--6--------------5---1--3~~~~~~--------
  development and support by
dmitry ivanov