rock
 
|tablatures   |lyrics   |discussion forums   |more tabs @ XGuitar.com

Green Day tabs

Redundant bass tab

Artist: Green Day
Song: Redundant
Nimrod
Corrected By:mikey_bass@hotmail.com
Original Tabbed By:Derek Dierkes (dirkis51@aol.com)

I correct this from Derek because the chorus is wrong, you can see in the video 
that Mike plays root-8th, so here is 100% O.K.


Intro

   A         G#          G       F#
G|---------------------------------------------|
D|-7-7h9p7-7-6h7p6-6-7-6-5h6-5-5-4h5p4---------|
A|---------------------------------------------|
E|---------------------------------------------|

Post-Chorus

  F#        B           D           A                             E E
G|-------------------4-----------7----------------------------------9-|
D|-----------------4-----------7----------11--12--11-------11---------|
A|----------222222------555555------12-12---12--12--12--12---12---7---|
E|-22222222-----------------------------------------------------------|

Verse

   A         D         A     D A         A         D       E           G G
G|-------------------------------------------------------------------------|
D|-----------------------------------------------------------------------5-|
A|-----------5555555-7-------5---------------------5555555-77777777777-----|
E|-5555555-7-----------55555---5555555-4-5555555-7---------------------3---|

   A         D         A     D A         A         D       E         
G|----------------------------------------------------------------|
D|----------------------------------------------------------------|
A|-----------5555555-7-------5---------------------5555555-7777777|
E|-5555555-7-----------55555---5555555-4-5555555-7----------------|
Cont.
  E
G|-------------|
D|-6--9-7-6----|
A|--7-------7--|
E|-------------|

Chorus
   A            G#          G
G|--------------------------------------|
D|---7--7--7--7--6--6--6--6--5--5--5--5-|
A|--------------------------------------|
E|-5--5--5--5--4--4--4--4--3--3--3--3---|

Bridge
   A         D         A     D A         F#       B             
G|----------------------------------------------------------|
D|----------------------------------------------------------|
A|-----------5555555-7-------5-------------------0-22222222-|
E|-5555555-7-----------55555---5555555-4-2222222------------|

Cont.
   E                G G         
G|----------------------|
D|----2-22--4p2--22---5-|
A|----------------------|
E|-00-----0----0----3---|

   A         D         A                   F#        B                            
G|------------------------------------------------------------|
D|------------------------------------------------------------|
A|-----------5555555-7-----------------------------0-22222222-|
E|-5555555-7-----------5555555-4-5555555-4-2222222------------|

Cont.
  E
G|--------------------|
D|--2-22--4p2--2-2--22|
A|--------------------|
E|00-----0---0----0---|


Outro
   
   A         G#          G       F#
G|---------------------------------------------|
D|-7-7h9p7-7-6h7p6-6-7-6-5h6-5-5-4h5p4---------|
A|---------------------------------------------|
E|-------------------------------------2-------|


Order

Intro                       x 1
Post-Chorus                 x 1
Verse                       x 1
Chorus                      x 1
Post-Chorus                 x 1
Chorus                      x 1
Post-Chorus                 x 1
Bridge                      x 1
Chorus                      x 1
Post-Chorus (Without E E)   x 1
Chorus                      x 1  
Post-Chorus (Without E E)   x 1
Outro                       x 1
  development and support by
dmitry ivanov