rock
 
|tablatures   |lyrics   |discussion forums   |more tabs @ XGuitar.com

Green Day tabs

Pulling Teeth guitar tab


Date: Tues, May 18 1999
From: Peter Ferragine (pferragine@interhop.net)
Group: Green Day
Album: Dookie
Released: 1994 reprise records
Track: 6
Title: pulling teeth


intro

|-------------|
|-------------|
|-------------|
|-8-8-8---8---|
|-8-8-8---8---|
|-6-6-6---6---|

|---------------------------------|
|---------------------------------|
|-----------------------------5---|
|-8-8-8-8-8-8-8-8-6-6-6-6-6-6-5-6-|
|-8-8-8-8-8-8-8-8-6-6-6-6-6-6-3-6-|
|-6-6-6-6-6-6-6-6-4-4-4-4-4-4---4-|

verse

|-----------------------------------------------------------------
|-----------------------------------------------------------------
|-8--8--8-8-8---------------8--8--8-8-8---------------8--8--8-8-8-
|-8--8--8-8-8-6--6-6--6-6-6-8--8--8-8-8-8--8-8--8-8-8-8--8--8-8-8-
|-6--6--6-6-6-6--6-6--6-6-6-6--6--6-6-6-8--8-8--8-8-8-6--6--6-6-6-
|-------------4--4-4--4-4-4-------------6--6-6--6-6-6-------------

 --------------------------------------|
 --------------------------------------|
 ---------------8--8-8--------8--8-8-8-|
 -6--6-6--6-6-6-8--8-8-8--8-8-8--8-8-8-|
 -6--6-6--6-6-6-6--6-6-8--8-8-6--6-6-6-|
 -4--4-4--4-4-4--------6--6-6----------|

chorus

|--------------------------------------------------------------------
|--------------------------------------------------------------------
|-------------------------------8-8-8-8-8-8-8-8----------------------
|-10-10-10-10-10-10-10-10-10-10-8-8-8-8-8-8-8-8-10-10-10-10-10-10-10-
|-10-10-10-10-10-10-10-10-10-10-6-6-6-6-6-6-6-6-10-10-10-10-10-10-10-
|--8--8--8--8--8--8--8--8--8--8------------------8--8--8--8--8--8--8-

 ----------------------------------------|
 ----------------------------------------|
 ----------------------------------------|
 -10-10-10-8-8-8-8-8-8-8-8--8--8--8--8-8-|
 -10-10-10-8-8-8-8-8-8-8-8--8--8--8--8-8-|
 --8--8--8-6-6-6-6-6-6-6-6--6--6--6--6-6-|

lyrics

i'm all busted up broken bones and nasty cuts
accidents will happen but this time i can't get up
she comes to check on me 
making sure i'm on my knees
after all she's the one who put me in this state
is she ultra violent? is she disturbed?
i better tell that i love her
before she does it all over again
oh god she's killing me
for now I lay around hell that's all i can really do
she takes good care of me, just keep saying my love is true
  development and support by
dmitry ivanov