rock
 
|tablatures   |lyrics   |discussion forums   |more tabs @ XGuitar.com

Green Day tabs

Prosthetic Head bass tab

     artist:Green Day
     album: Nimrod
     song: Prosthetic Head
     tabbed by: Chris M  (BassMaster1123@aol.com)

      This song is really easy once you figure it out. Below is basically the 
whole song, just listen to the CD to figure out the order. It aint that hard, 
trust me.





Verse

E-------------------7-7-7--------------5-5-5
A-------0--7-7--------------0--5-5----------
D-----------------------------------------------
G-----------------------------------------------


Pre-Chorus

E-----------------
A----------5--7>
D-----------------
G----------------

Chorus
(same as verse)

Solo

E--------6-7-----------5-5--4--2
A-------------6-7--6--------------
D-----------------------------------
G-----------------------------------

E--------6-7-----5--------------5-5-5
A--------------6-----4-5-5-4---------
D----------------------------------------
G---------------------------------------
  development and support by
dmitry ivanov