rock
 
|tablatures   |lyrics   |discussion forums   |more tabs @ XGuitar.com

Green Day tabs

Private Ale guitar tab


Date: Sat, April 10 1999
From: Peter Ferragine (pferragine@interhop.net)
Group: Green Day
Album: Kerplunk
Released: 1991 lookout records
Track: 5
Title: private ale

pm - palm mute
/ \ - slide


verse
pm_________________________|
|-------------------------------------------------------|
|-------------------------------------------------------|
|---------------------------6-6-6-6-6-6-6---------------|
|-6-6-6-6-6-6-6-6-6-6-6-6-6-6-6-6-6-6-6-6-6-6-6-6-6-6-6-|
|-6-6-6-6-6-6-6-6-6-6-6-6-6-4-4-4-4-4-4-4-6-6-6-6-6-6-6-|
|-4-4-4-4-4-4-4-4-4-4-4-4-4---------------4-4-4-4-4-4-4-|

chorus

|---------------------|
|---------------------|
|-6-6-----8-8-8-8-8-8-|
|-6-6-6-6-8-8-8-8-8-8-|
|-4-4-6-6-6-6-6-6-6-6-|
|-----4-4-------------|

riff 

|---------------------------|
|---------------------------|
|---------------6-6-6-6-6-6-|
|-4/6-6-6-4-4-4-6-6-6-6-6-6-|
|-4/6-6-6-4-4-4-4-4-4-4-4-4-|
|-2/4-4-4-2-2-2-------------|

bridge

|---------|
|---------|
|----5----|
|-6--5--4-|
|-6--3--4-|
|-4-----2-|

bass solo, guitar plays

|-------------------------|
|-------------------------|
|-------------6-6-6-6-6-6-|
|-6-6-6-6-6-6-6-6-6-6-6-6-|
|-6-6-6-6-6-6-4-4-4-4-4-4-|
|-4-4-4-4-4-4-------------|

lyrics

i wonder down these streets all by myself
think of my future now i just don't know
i don't seem to care
i stop to notice that i'm by your home
i wonder if you're sitting all alone
or is your boyfriend there
because i feel so right
let my imagination go
until you're in my sight
and through my veins temptation flows
so i sit down here on the hard concrete
think of my future now i just don't know
i don't seem to care
so i sit across the street from your home
i wonder if you're sitting all alone
or is your boyfriend there
  development and support by
dmitry ivanov