rock
 
|tablatures   |lyrics   |discussion forums   |more tabs @ XGuitar.com

Green Day tabs

Private Ale bass tab

green day-private ale
Private Ale

Verse
g-------------------| |---------------------------------------------------------|
d-------------------| |------------------------------------45-------------------|
a-------------------| |-----------------4h5-5-5-x5-x5x5x5x5---------------------|
e-55555555-55555555-| |-55555555-55555h7-----------------------55-x55-x555-x555-|

Pre Chorus
g------------------------------------------------------------------------------------|
d--7--------------------7--------------------7--------------------7------------------|
a-5-5-----777-777-7777-5-5-----777-77-97----5-5-----777-777-7777-5-5-----777-77-97---|
e-----555------------------555----------109-----555------------------555----------97-|

Chorus		      Pre Solo
g-------------7------------6h7-|     |----------|
d------------------------------|     |----------|
a-----------55-----------55----|     |----3-----|
e-3h5-5-333----3h5-5-333-------|     |-5-----3--|

Solo
g---------------------------------------|
d-------------------5h7-x-777-4h5-x-555-|
a---------------------------------------|
e-33333333-33333333---------------------| 
  development and support by
dmitry ivanov