rock
 
|tablatures   |lyrics   |discussion forums   |more tabs @ XGuitar.com

Green Day tabs

Poprocks Coke guitar tab

Song:Poprocks and Coke
Artist: Green Day
Tabbed by: Caleb H.

Standard Tuning: E A D G B E

Intro:
[----------------------------------------------------------------]
[----------------------------------------------------------------]
[--------------------55------------------------------------------]
[-3-33-3333-3-33-333-55------------------------------------------]
[-3-33-3333-3-33-333-33------------------------------------------]
[-1-11-1111-1-11-111---------------------------------------------]

Verse:
[----------------------------------------------------------------]
[----------------------------------------------------------------]
[---------------3-33-3333333---------------5-55-5555555-3-33-3333]
[-3-33-33333333-3-33-3333333-3-33-33333333-5-55-5555555-3-33-3333]
[-3-33-33333333-1-11-1111111-3-33-33333333-3-33-3333333-1-11-1111]
[-1-11-11111111--------------1-11-11111111-----------------------]

[---------------------]
[---------------------]
[-333-----------------]
[-333-3-33-3333333----]
[-111-3-33-3333333----]
[-----1-11-1111111----]

Chorus:
[---------------------------------------------------]
[---------------------------------------------------]
[-5555555-33333333-5555555-33333333-5555555-333-----]
[-5555555-33333333-5555555-33333333-5555555-333-----]
[-3333333-11111111-3333333-11111111-3333333-111-----]
[---------------------------------------------------]

Enjoy!
  development and support by
dmitry ivanov