rock
 
|tablatures   |lyrics   |discussion forums   |more tabs @ XGuitar.com

Green Day tabs

Poprocks Coke bass tab

Song: Poprocks And Coke
Group: Green Day
Album: International Superhits (2001)
Lyrics: Billie Joe Armstrong
Music: Green Day

Well, the exactly way to play it only Mr. Dirnt knows it, but I think
this one is very close, i'm little doubtful about the fills, but they
sound OK to me. Well, my friends, I hope you enjoy it, and continue
playing International Superhits!

Transcribed and Submitted by Jorge Gonzalez
Any doubts or questions write ---> jw55@elsitio.com

Normal Tuning

INTRO
G---------------------------------------
D---------------------------------------
A-----------------------------------7-7-	
E--5--5-5--5-5-5-5--5--5-5--5-5-5-5-----

VERSE
G----------------------------------------------------------------------
D----------------------------------------------------------------------
A-------------------5--5-5--5-5-5-5-------------------7--7-7--7-7-7-7--
E--5--5-5--5-5-5-5-------------------5--5-5--5-5-5-5-------------------

G--------------------------------------------
D--------------------------------------------
A--7-6-5--5-5--5-5-5-5--5--------------------
E--------------------------5--5-5--5-5-5-5---

VERSE 1
G---------------------------------------------------------------
D-----  Billie sings alone   -----------------------------------
A-----  and then distortion  --5--5-5--5-5-5-5------------------
E--5--        enters         -------------------5--5-5--5-5-5-5-

G--------------------------------------------------------------
D--------------------------------------------------------------
A--7--7-7--7-7-7-7--7-6-5--5-5--5-5-5-5--5---------------------
E--------------------------------------------5--5-5--5-5-5-5---

CHORUS
G---------------------------------------------------------------------
D---------------------------------------------------------------------
A-------------------------5-0-2-2-2-2--5-5-5-5---5-0-2-2-2-2--5-5-5-5-
E--5-0-2-2-2-2--5-5-5-5-----------------------------------------------

CHORUS 1
G-----------------------------------------------
D-----------------------------------------------
A-------------------------5-0-2-2-2-2--5-5-5-5--
E--5-0-2-2-2-2--5-5-5-5-------------------------

G---------------------------------------------
D---------------------------------------------
A--5-0-2-2-2-2--5-5-5-5--5-0-2222222222222----
E---------------------------------------------

BRIDGE
G-----------------------------------------------------------------
D-----------------------------------------------------------------
A-----------------------------------------------------------------
E--5--5-5--5-5-5-5--5--5-5--5-5-5-5--5-0-2--2-2--2-2--2-2-0-2-4-5-

G-----------------------------------------------------------------
D-----------------------------------------------------------------
A------------5-4-X-5--5-5--5-5--5-4-------------------------------
E--5-5--5-5-------------------------5--5-5--5-5--5-0-2--2-2--2-2--

G--------------------------------------------------------------------
D--------------------------------------------------------------------
A-------------------------5-4-2-0--5555555555555555-7777777777777777-
E--2-2-0-2-4-5--5-5--5-5---------------------------------------------

OUTRO				   end
G-----------------------         -------
D-----------------------         -------
A-------------------7-7-  X3     -------
E--5--5-5--5-5--5-5-----         --(5)--

INTRO
VERSE X 2
CHORUS
INTRO
VERSE 1
CHORUS
BRIDGE
VERSE 1
CHORUS 1
OUTRO

NOTE: The number of notes aren't exact,
to play it with feeling, listen to the CD.
  development and support by
dmitry ivanov