rock
 
|tablatures   |lyrics   |discussion forums   |more tabs @ XGuitar.com

Green Day tabs

Platypus I Hate You bass tab

Green Day
Bass tab for Platypus (I Hate You)
Transcribed by Craig Oxley
E-Mail : cogder_o@hotmail.com

Listen for correct timing and placing.

Standard Tuning

G----------------I
D----------------I
A----------------I
E--7-7--3--2---I

G----------------------------------I
D----------------------------------I
A------------------7-7-7----------I
E--7-7-7--5-5-5---------7-7-7--I

G-------------------I
D-------------------I
A-------------------I
E--7--5--5--6--7--I

Verse
G------------------------------------I
D------------------------------------I
A-------------------7-7-7----------I
E--7-7-7--5-5-5----------7-7-7--I

Chorus
G------------------------------------------------------------------------I
D------------------------------------------------------------------------I
A-------------------------7-7----------------------7-7-----------------I
E--5-5-5-5-5-5-5-5-5--------7-7-7-7-7-7-----------7-7-7-7-7-7--I

Fill
G-----------------I
D-------------4--I
A---------4------I
E--2--6----------I

Outro
G----------------I
D----------------I
A----------------I
E--5-5--6--7---I
  development and support by
dmitry ivanov