rock
 
|tablatures   |lyrics   |discussion forums   |more tabs @ XGuitar.com

Green Day tabs

Paper Lanterns bass tab

    



  I figured out the tab to Green Day's song Paper Lanterns 
on the 1039 album.  It has three bassic (purposeful spelling errors can be so fun) 
parts, the intro/behind the solo, the verse and the chorus:

Intro and what Mike plays under Billie's solo:
A-------5-5-3-0
E-5-3-3--------

Verse (two parts, played one after the other twice):
E-5-5-5-5--3-3-3-3--2-2-2-2--0-0-0-0

then:
A-------------------5-5-5-5
E-5-5-5-5--3-3-3-3-----------5-5-5-5

Chorus(like the verse, in that it has two parts):
D-------2-2-2-2--------------
A-5-5-5--------0-0-0-0-0-5-0

then
D-------2-2-2-2------
A-5-5-5-----------5--
E---------------3---5


That's it.  It is not hard, just listen to the song for timing.  My name is Mike 
Farmer and my email is mfarmer@mail.coin.missouri.edu, I'm writing from netscape.  
If there are any corrections or comments, I appreciate them (please don't scream at 
me because I don't like having my feelings hurt.)
  development and support by
dmitry ivanov