rock
 
|tablatures   |lyrics   |discussion forums   |more tabs @ XGuitar.com

Green Day tabs

Panic Song guitar tab

From: GeekStink@aol.com

Date: Wed, 11 Oct 1995 21:42:57 -0400

Subject: "panic song" by green day



"Panic Song"



Intro / Solo:



Open A string...rapid...then

--------------2----5------

----1--1----3----6-------

--2----0----2------------

--------------4------------

---------------------------

---------------------------



D D# xxxxxxxxxxx

D D# XXXXXXXXXXX(MUTED STRINGS)



Verse:

E(PM)

Ready for a cheap escape.

E(PM)

On the brink of self-destruction.

B		D

Widespread panic.

E		D	A

Broken glass inside my head.

E		D	A

Bleeding down these thoughts of

B		D

Anguish... mass confusion.



Chorus:

A			E

The world is a sick machine

B			E

breeding a mass of shit.

A			E

With such a desolate conclusion.

B			E

Fill the void with...l don't care.



Verse:

E		D	A

There's a plague inside of me.

E		D	A

Eating at my disposition.

B		D

Nothing's left

E		D	A

torn out of reality.

E		D	A

Into a state of no opinion.

B		D

Limp with hate.



geekstink@aol.com



-----------------------------------------------------------------------------



Date: Thurs, July 15 1999

From: Peter Ferragine (pferragine@interhop.net)

Group: Green Day

Album: Insomniac

Released: 1995 reprise records

Track: 8

Title: panic song



: - let ring



**tune  step down**





intro



|--------------------|----------------------|

|---4---5---7---7----|-4-4---5-5---7-7--7-7-|

|-4-----4---4---4----|-4-4---4-4---4-4--4-4-|

|--------------------|----------------------|

|--------------------|----------------------|

|--------------------|----------------------|



verse



|-----------------------------------------------|

|-----------------------------------------------|

|-4-4-4-4-4-4-4-4-4-4-4-------------------------|

|-4-4-4-4-4-4-4-4-4-4-4-6-6-6-6-6-6-4-4-4-4-4-4-|

|-2-2-2-2-2-2-2-2-2-2-2-6-6-6-6-6-6-4-4-4-4-4-4-|

|-----------------------4-4-4-4-4-4-2-2-2-2-2-2-|



chorus



|-------------------------------------------------------------

|-------------------------------------------------------------

|-------------4-4-4-4-4-4-------------4-4-4-4-4-4-------------

|-2-2-2-2-2-2-4-4-4-4-4-4-4-4-4-4-4-4-4-4-4-4-4-4-2-2-2-2-2-2-

|-2-2-2-2-2-2-2-2-2-2-2-2-4-4-4-4-4-4-2-2-2-2-2-2-2-2-2-2-2-2-

|-0-0-0-0-0-0-------------2-2-2-2-2-2-------------0-0-0-0-0-0-



 ----------------------------|

 ----------------------------|

 -4-4-4-4-4-4----------------|

 -4-4-4-4-4-4-7-7-7-7-7-7-4:-|

 -2-2-2-2-2-2-7-7-7-7-7-7-4:-|

 -------------5-5-5-5-5-5-2:-|



outro



|-----------------------------------------|

|-----------------------------------------|

|-4-4-4-4-4-4-4-4-------------------------|

|-4-4-4-4-4-4-4-4-7-7-7-7-7-7-4-4-4-4-4-4-|

|-2-2-2-2-2-2-2-2-7-7-7-7-7-7-4-4-4-4-4-4-|

|-----------------5-5-5-5-5-5-2-2-2-2-2-2-|



lyrics



ready for a cheap escape on the brink of self-destruction

widespread panic

broken glass inside my head bleeding down these thoughts of

anguish... mass confusion

the world is a sick machine breeding a mass of shit

with such a desolate conclusion fill the void with..i don't care

there's a plague inside of me eating at my disposition

nothing's left

torn out of reality into a state of no opinion

limp with hate

  development and support by
dmitry ivanov