rock
 
|tablatures   |lyrics   |discussion forums   |more tabs @ XGuitar.com

Green Day tabs

Panic Song bass tab

Song: Panic Song
Artist: Green Day
Album: Insomniac


Intro (Play this over and over nonstop until it goes to drums only...)
Gb-----------------------------------------
Db--9-9-9-9-9-9-9-9-9-9-9-9-9-9-9-9-9-9-9--
Ab-----------------------------------------
Eb-----------------------------------------

Then play this....

Gb-----------------------
Db-----------------------
Ab-----------------------
Eb--4-4-4-4-4-2-2-2-2-2--

Verse
Gb---------------------------------------
Db---------------------------------------
Ab--2-2-2-2-2-2-2-2----------------------
Eb------------------4-4-4-4-4-2-2-2-2-2--

Chorus
Gb-----------------------------------------------------
Db----------------------------------2-2-2-2------------
Ab----------2-2-2-2---------2-2-2-2---------0-0-0-0----
Eb--0-0-0-0---------2-2-2-2-------------------------2--

Outro				       X3 (Let the last note ring...)
Gb---------------------------------------|-----------------------------
Db---------------------------------------|-----------------------------
Ab--2-2-2-2-2-2-0-0-0-0-0-0--------------|--2-2-2-2-2-2-0-0-0-0-0-0----
Eb--------------------------2-2-2-2-2-2--|--------------------------2--


Intro X1
Verse X1
Chorus X1
Verse X2
Chorus X1
Outro X1

This tab was created by Christian Mangs. Email me at:
Shadow145@hotmail.com
  development and support by
dmitry ivanov