rock
 
|tablatures   |lyrics   |discussion forums   |more tabs @ XGuitar.com

Green Day tabs

Outsider guitar tab

OUTSIDER
                            As recorded by Green Day
                        (From the 2002 Album SHENANIGANS)

Words by Dee Dee Ramone

Music by Billie Joe Armstrong and Mike Drint
Transcribed by Cam Penny

Gtr I (E A D G B E) - 'dist.'
Gtr II (E A D G B E) - 'dist.'

 Chorus
  Fast Rock Q=193
  A5                                 G5
 4/4
  Gtr I
  Q  E E E E E E   E E E E E E E E   Q  E E E E E E   E E E E E E E E
|----------------|-----------------|----------------|------------------|
|----------------|-----------------|----------------|------------------|
|----------------|-----------------|----------------|------------------|
|-7--7-7-7-7-7-7-|-7-7-7-7-7-7-7-7-|-5--5-5-5-5-5-5-|-5-5-5-5-5-5-5-5--|
|-7--7-7-7-7-7-7-|-7-7-7-7-7-7-7-7-|-5--5-5-5-5-5-5-|-5-5-5-5-5-5-5-5--|
|-5--5-5-5-5-5-5-|-5-5-5-5-5-5-5-5-|-3--3-3-3-3-3-3-|-3-3-3-3-3-3-3-3--|
|
| Gtr II
| W                W                 W                Q   E E Q   Q
|----------------|-----------------|----------------|------------------|
|----------------|-----------------|----------------|------------------|
|----------------|-----------------|----------------|------------------|
|----------------|-----------------|----------------|------------------|
|----------------|-----------------|----------------|---------0---2----|
|----------------|-----------------|----------------|-----0-3----------|


    A5                                   G5
    Q  E E E E E E    E  E E E E E E E   Q  E E E E E E   E E E E E E E E
||-----------------|-------------------|----------------|-------------------||
||o----------------|-------------------|----------------|------------------o||
||-----------------|-------------------|----------------|-------------------||
||--7--7-7-7-7-7-7-|--7--7-7-7-7-7-7-7-|-5--5-5-5-5-5-5-|-5-5-5-5-5-5-5-5---||
||o-7--7-7-7-7-7-7-|--7--7-7-7-7-7-7-7-|-5--5-5-5-5-5-5-|-5-5-5-5-5-5-5-5--o||
||--5--5-5-5-5-5-5-|--5--5-5-5-5-5-5-5-|-3--3-3-3-3-3-3-|-3-3-3-3-3-3-3-3---||
|
|   W                +W                  W                Q   E E Q   Q
||-----------------|-------------------|----------------|-------------------||
||o----------------|-------------------|----------------|------------------o||
||-----------------|-------------------|----------------|-------------------||
||-----------------|-------------------|----------------|-------------------||
||o-0--------------|-(0)---------------|----------------|---------0---2----o||
||-----------------|-------------------|----------------|-----0-3-----------||


                                                               To Coda
  A5                                   G5
  Q  E E E E E E    E  E E E E E E E   Q  E E E E E E   E E E E E E E E
|----------------|-------------------|----------------|-----------------|
|----------------|-------------------|----------------|-----------------|
|----------------|-------------------|----------------|-----------------|
|-7--7-7-7-7-7-7-|--7--7-7-7-7-7-7-7-|-5--5-5-5-5-5-5-|-5-5-5-5-5-5-5-5-|
|-7--7-7-7-7-7-7-|--7--7-7-7-7-7-7-7-|-5--5-5-5-5-5-5-|-5-5-5-5-5-5-5-5-|
|-5--5-5-5-5-5-5-|--5--5-5-5-5-5-5-5-|-3--3-3-3-3-3-3-|-3-3-3-3-3-3-3-3-|
|
| W                +W                  W                W
|----------------|-------------------|----------------|-----------------|
|----------------|-------------------|----------------|-----------------|
|----------------|-------------------|----------------|-----------------|
|----------------|-------------------|----------------|-----------------|
|-0--------------|-(0)---------------|----------------|-----------------|
|----------------|-------------------|----------------|-----------------|


                                                     D.C. al Coda
  A5                       G5      A5                       G5
  Q  E E E E E E   E E E E Q  Q    Q  E E E E E E   E E E E Q  Q
|----------------|---------------|----------------|---------------|
|----------------|---------------|----------------|---------------|
|----------------|---------------|----------------|---------------|
|-7--7-7-7-7-7-7-|-7-7-7-7-5--5--|-7--7-7-7-7-7-7-|-7-7-7-7-5--5--|
|-7--7-7-7-7-7-7-|-7-7-7-7-5--5--|-7--7-7-7-7-7-7-|-7-7-7-7-5--5--|
|-5--5-5-5-5-5-5-|-5-5-5-5-3--3--|-5--5-5-5-5-5-5-|-5-5-5-5-3--3--|


 Bridge
  &
  A5                                   G5               A5
  Q  E E E E E E   E E E E E E E E     Q  E E E E E E   Q  E E E E E E  4x
|----------------|-----------------||-----------------|-----------------||
|----------------|-----------------||o----------------|----------------o||
|----------------|-----------------||-----------------|-----------------||
|-7--7-7-7-7-7-7-|-7-7-7-7-7-7-7-7-||--5--5-5-5-5-5-5-|-7--7-7-7-7-7-7--||
|-7--7-7-7-7-7-7-|-7-7-7-7-7-7-7-7-||o-5--5-5-5-5-5-5-|-7--7-7-7-7-7-7-o||
|-5--5-5-5-5-5-5-|-5-5-5-5-5-5-5-5-||--3--3-3-3-3-3-3-|-5--5-5-5-5-5-5--||


  A5      G5      A5                       G5      A5
  E E E E Q  Q    Q  E E E E E E   E E E E Q  Q    Q  E E E E E E
|---------------|----------------|---------------|----------------|
|---------------|----------------|---------------|----------------|
|---------------|----------------|---------------|----------------|
|-7-7-7-7-5--5--|-7--7-7-7-7-7-7-|-7-7-7-7-5--5--|-7--7-7-7-7-7-7-|
|-7-7-7-7-5--5--|-7--7-7-7-7-7-7-|-7-7-7-7-5--5--|-7--7-7-7-7-7-7-|
|-5-5-5-5-3--3--|-5--5-5-5-5-5-5-|-5-5-5-5-3--3--|-5--5-5-5-5-5-5-|


          G5      A5
  E E E E Q  Q    Q  E E E E E E   E E E E E E E E
|---------------|----------------|-----------------|
|---------------|----------------|-----------------|
|---------------|----------------|-----------------|
|-7-7-7-7-5--5--|-7--7-7-7-7-7-7-|-7-7-7-7-7-7-7-7-|
|-7-7-7-7-5--5--|-7--7-7-7-7-7-7-|-7-7-7-7-7-7-7-7-|
|-5-5-5-5-3--3--|-5--5-5-5-5-5-5-|-5-5-5-5-5-5-5-5-|


   Interlude
    F#                      C#
     Q   E  E  E  E  E  E   Q  E E E E E E
||------------------------|----------------|
||o-11--11-11-11-11-11-11-|-6--6-6-6-6-6-6-|
||--11--11-11-11-11-11-11-|-6--6-6-6-6-6-6-|
||--11--11-11-11-11-11-11-|-6--6-6-6-6-6-6-|
||o--9---9--9--9--9--9--9-|-4--4-4-4-4-4-4-|
||------------------------|----------------|


  B
  Q  E E E E E E   E E E E E E E E   4x
|----------------|-------------------||
|-4--4-4-4-4-4-4-|-4-4-4-4-4-4-4-4--o||
|-4--4-4-4-4-4-4-|-4-4-4-4-4-4-4-4---||
|-4--4-4-4-4-4-4-|-4-4-4-4-4-4-4-4---||
|-2--2-2-2-2-2-2-|-2-2-2-2-2-2-2-2--o||
|----------------|-------------------||


 2nd Bridge
  F#5                                  G5               A5
  Q  E E E E E E   E E E E E E E E     Q  E E E E E E   Q  E E E E E E  4x
|----------------|-----------------||-----------------|-----------------||
|----------------|-----------------||o----------------|----------------o||
|----------------|-----------------||-----------------|-----------------||
|-4--4-4-4-4-4-4-|-4-4-4-4-4-4-4-4-||--5--5-5-5-5-5-5-|-7--7-7-7-7-7-7--||
|-4--4-4-4-4-4-4-|-4-4-4-4-4-4-4-4-||o-5--5-5-5-5-5-5-|-7--7-7-7-7-7-7-o||
|-2--2-2-2-2-2-2-|-2-2-2-2-2-2-2-2-||--3--3-3-3-3-3-3-|-5--5-5-5-5-5-5--||


                   Outro-Chorus
  A5
  E E E E E E E E   Q  E E E E E E   E E E E E E E E
|-----------------|----------------|-----------------|
|-----------------|----------------|-----------------|
|-----------------|----------------|-----------------|
|-7-7-7-7-7-7-7-7-|-7--7-7-7-7-7-7-|-7-7-7-7-7-7-7-7-|
|-7-7-7-7-7-7-7-7-|-7--7-7-7-7-7-7-|-7-7-7-7-7-7-7-7-|
|-5-5-5-5-5-5-5-5-|-5--5-5-5-5-5-5-|-5-5-5-5-5-5-5-5-|


    G5                                 A5
    Q  E E E E E E   E E E E E E E E   Q  E E E E E E    E  E E E E E E E   3x
||-----------------|-----------------|----------------|---------------------||
||o----------------|-----------------|----------------|--------------------o||
||-----------------|-----------------|----------------|---------------------||
||--5--5-5-5-5-5-5-|-5-5-5-5-5-5-5-5-|-7--7-7-7-7-7-7-|--7--7-7-7-7-7-7-7---||
||o-5--5-5-5-5-5-5-|-5-5-5-5-5-5-5-5-|-7--7-7-7-7-7-7-|--7--7-7-7-7-7-7-7--o||
||--3--3-3-3-3-3-3-|-3-3-3-3-3-3-3-3-|-5--5-5-5-5-5-5-|--5--5-5-5-5-5-5-5---||
|
|   Gtr II
|   W                Q   E E Q   Q     W                +W                  3x
||-----------------|-----------------|----------------|---------------------||
||o----------------|-----------------|----------------|--------------------o||
||-----------------|-----------------|----------------|---------------------||
||-----------------|-----------------|----------------|---------------------||
||o----------------|---------0---2---|-0--------------|-(0)----------------o||
||-----------------|-----0-3---------|----------------|---------------------||


  G5                                   A5                       G5
  Q  E E E E E E   E E E E E E E E     Q  E E E E E E   E E E E Q  Q   3x
|----------------|-----------------||-----------------|----------------||
|----------------|-----------------||o----------------|---------------o||
|----------------|-----------------||-----------------|----------------||
|-5--5-5-5-5-5-5-|-5-5-5-5-5-5-5-5-||--7--7-7-7-7-7-7-|-7-7-7-7-5--5---||
|-5--5-5-5-5-5-5-|-5-5-5-5-5-5-5-5-||o-7--7-7-7-7-7-7-|-7-7-7-7-5--5--o||
|-3--3-3-3-3-3-3-|-3-3-3-3-3-3-3-3-||--5--5-5-5-5-5-5-|-5-5-5-5-3--3---||


  A5
  W          +W           +W           +W
|----------|------------|------------|--------*|
|----------|------------|------------|--------*|
|----------|------------|------------|--------*|
|-7--------|-(7)--------|-(7)--------|-(7)----*|
|-7--------|-(7)--------|-(7)--------|-(7)----*|
|-5--------|-(5)--------|-(5)--------|-(5)----*|



                               OUTSIDER (Bassline)

Gtr I (E A D G) - 'dist.'

   Chorus
    Fast Rock Q=193
                                                               To Coda
   4/4
    Gtr I
    Q  E E E E E E   E E E E E E E E   Q  E E E E E E   E E E E E E E E  4x
||-----------------|-----------------|----------------|------------------||
||o----------------|-----------------|----------------|-----------------o||
||o----------------|-----------------|----------------|-----------------o||
||--5--5-5-5-5-5-5-|-5-5-5-5-5-5-5-5-|-3--3-3-3-3-3-3-|-3-3-3-3-3-3-3-3--||


                                                     D.C. al Coda
  Q  E E E E E E   E E E E Q  Q    Q  E E E E E E   E E E E Q  Q
|----------------|---------------|----------------|---------------|
|----------------|---------------|----------------|---------------|
|----------------|---------------|----------------|---------------|
|-5--5-5-5-5-5-5-|-5-5-5-5-3--3--|-5--5-5-5-5-5-5-|-5-5-5-5-3--3--|


 Bridge
  &
  Q  E E E E E E   E E E E E E E E     Q  E E E E E E   Q  E E E E E E  4x
|----------------|-----------------||-----------------|-----------------||
|----------------|-----------------||o----------------|----------------o||
|----------------|-----------------||o----------------|----------------o||
|-5--5-5-5-5-5-5-|-5-5-5-5-5-5-5-5-||--3--3-3-3-3-3-3-|-5--5-5-5-5-5-5--||


  E E E E Q  Q    Q  E E E E E E   E E E E Q  Q    Q  E E E E E E
|---------------|----------------|---------------|----------------|
|---------------|----------------|---------------|----------------|
|---------------|----------------|---------------|----------------|
|-5-5-5-5-3--3--|-5--5-5-5-5-5-5-|-5-5-5-5-3--3--|-5--5-5-5-5-5-5-|


  E E E E Q  Q    Q  E E E E E E   E E E E E E E E
|---------------|----------------|-----------------|
|---------------|----------------|-----------------|
|---------------|----------------|-----------------|
|-5-5-5-5-3--3--|-5--5-5-5-5-5-5-|-5-5-5-5-5-5-5-5-|


   Interlude
    Q  E E E E E E   Q  E E E E E E   Q  E E E E E E   E E E E E E E E   4x
||-----------------|----------------|----------------|-------------------||
||o----------------|----------------|----------------|------------------o||
||o-9--9-9-9-9-9-9-|-4--4-4-4-4-4-4-|-2--2-2-2-2-2-2-|-2-2-2-2-2-2-2-2--o||
||-----------------|----------------|----------------|-------------------||


 2nd Bridge
  Q  E E E E E E   E E E E E E E E     Q  E E E E E E   Q  E E E E E E  4x
|----------------|-----------------||-----------------|-----------------||
|----------------|-----------------||o----------------|----------------o||
|----------------|-----------------||o----------------|----------------o||
|-2--2-2-2-2-2-2-|-2-2-2-2-2-2-2-2-||--3--3-3-3-3-3-3-|-5--5-5-5-5-5-5--||


                     Outro-Chorus
  E E E E E E E E     Q  E E E E E E   E E E E E E E E   Q  E E E E E E
|-----------------||-----------------|-----------------|----------------|
|-----------------||o----------------|-----------------|----------------|
|-----------------||o----------------|-----------------|----------------|
|-5-5-5-5-5-5-5-5-||--5--5-5-5-5-5-5-|-5-5-5-5-5-5-5-5-|-3--3-3-3-3-3-3-|


  E E E E E E E E  4x Q  E E E E E E   E E E E Q  Q
|------------------||----------------|---------------|
|-----------------o||----------------|---------------|
|-----------------o||----------------|---------------|
|-3-3-3-3-3-3-3-3--||-5--5-5-5-5-5-5-|-5-5-5-5-3--3--|


    Q  E E E E E E   E E E E Q  Q      W
||-----------------|----------------||------|
||o----------------|---------------o||------|
||o----------------|---------------o||------|
||--5--5-5-5-5-5-5-|-5-5-5-5-3--3---||-5----|


  +W           +W           +W
|------------|------------|--------*|
|------------|------------|--------*|
|------------|------------|--------*|
|-(5)--------|-(5)--------|-(5)----*|



Duration Legend
---------------
W - whole; H - half; Q - quarter; E - 8th; S - 16th; T - 32nd; X - 64th; a - acciaccatura
+ - note tied to previous; . - note dotted; .. - note double dotted
Uncapitalized letters represent notes that are staccato (1/2 duration)
Irregular groupings are notated above the duration line
Duration letters will always appear directly above the note/fret number it represents the
duration for.  Duration letters with no fret number below them represent rests.  Multi-
bar rests are notated in the form Wxn, where n is the number of bars to rest for.  Low
melody durations appear below the staff

Tablature Legend
----------------
 h   - hammer-on
 p   - pull-off
 b   - bend
 pb  - pre-bend
 r   - bend release (if no number after the r, then release immediately)
 /\  - slide into or out of (from/to "nowhere")
 s   - legato slide
 S   - shift slide
  - natural harmonic
[n]  - artificial harmonic
n(n) - tapped harmonic
 ~   - vibrato
 tr  - trill
 T   - tap
 TP  - trem. picking
 PM  - palm muting
\n/  - tremolo bar dip; n = amount to dip
 \n  - tremolo bar down
 n/  - tremolo bar up
/n\  - tremolo bar inverted dip
 =   - hold bend; also acts as connecting device for hammers/pulls
 <>  - volume swell (louder/softer)
 x   - on rhythm slash represents muted slash
 o   - on rhythm slash represents single note slash

Misc Legend
-----------
 |  - bar
||  - double bar
||o - repeat start
o|| - repeat end
*|  - double bar (ending)
 :  - bar (freetime)
 $  - Segno
 &  - Coda
Tempo markers -  = BPM(8/16=s8/s16), where s8 = swing 8ths, s16 = swing 16ths


Lyrics
------

I'm an outsider outside of everything
I'm an outsider outside of everything
I'm an outsider outside of everything
Everything you know
Everything you know
It disturbs me so

Everybody's got to push me, push me around
Everybody's got to put me, try to put me down

I messed up everyone
I've already had all my fun
More troubles are gonna come
I've already had all my fun
Oh yeah yeah yeah
  development and support by
dmitry ivanov