rock
 
|tablatures   |lyrics   |discussion forums   |more tabs @ XGuitar.com

Green Day tabs

One Of My Lies guitar tab


Date: Sat, April 10 1999
From: Peter Ferragine (pferragine@interhop.net)
Group: Green Day
Album: Kerplunk
Released: 1991 lookout records
Track: 7
Title: one of my lies


intro

|--------------------------------------------|
|--------------------------------------------|
|-6-6-6-6-6-6--------------------------------|
|-6-6-6-6-6-6-6-6-6-6-6-6--4-3-3-4-3-4-3-4-6-|
|-4-4-4-4-4-4-6-6-6-6-6-6--4-3-3-4-3-4-3-4-6-|
|-------------4-4-4-4-4-4--2-1-1-2-1-2-1-2-4-|

verse

|-------------------------------------------------------------
|-------------------------------------------------------------
|-6-6-6-6-6-6-------------3-3-3-3-3-3-------------------------
|-6-6-6-6-6-6-6-6-6-6-6-6-3-3-3-3-3-3-3-3-3-3-3-3-4-4-4-4-4-4-
|-4-4-4-4-4-4-6-6-6-6-6-6-1-1-1-1-1-1-3-3-3-3-3-3-4-4-4-4-4-4-
|-------------4-4-4-4-4-4-------------1-1-1-1-1-1-2-2-2-2-2-2-

 -------------------------------|
 -------------------------------|
 -6-6-6-6-6-6-------------------|
 -6-6-6-6-6-6-6-6-6-6-6-6-6-6-6-|
 -4-4-4-4-4-4-6-6-6-6-6-6-6-6-6-|
 -------------4-4-4-4-4-4-4-4-4-|

then....

|-----------------------------------------|
|-----------------------------------------|
|-----------------------------------------|
|-4-4-4-4-4-6-6-6-6-6-4-4-4-4-4-6-6-6-6-6-|
|-4-4-4-4-4-6-6-6-6-6-4-4-4-4-4-6-6-6-6-6-|
|-2-2-2-2-2-4-4-4-4-4-2-2-2-2-2-4-4-4-4-4-|

chorus

|-------------------------------------------------|
|-------------------------------------------------|
|-6-6-6-6-6-6-------------6-6-6-6-6-6-------------|
|-6-6-6-6-6-6-6-6-6-6-6-6-6-6-6-6-6-6-6-6-6-6-6-6-|
|-4-4-4-4-4-4-6-6-6-6-6-6-4-4-4-4-4-4-6-6-6-6-6-6-|
|-------------4-4-4-4-4-4-------------4-4-4-4-4-4-|

lyrics

when i was younger i thought the world circled around me
but in time i realized i was wrong
my immortal thoughts turned into just dreams of a dead future
it was a tragic case of my reality
do you think you're indestructable
and no one can touch you
well i think you're disposeable
and it's time you knew the truth
cause it's just one of my lies
well, its just its just one of my lies
and all I wanted to was get real high
well, its just its just one of my lies
why does my life have to be so small
yet death is forever
and does forever have a life to call its own
don't give me an answer cause you
only know as much as i know
unless you've been there once
well I hardly think so
i used to pray all night
before i lay myself down
my mother said it was right
her mother said it too...
why
  development and support by
dmitry ivanov