rock
 
|tablatures   |lyrics   |discussion forums   |more tabs @ XGuitar.com

Green Day tabs

One For The Razorbacks guitar tab


Date: Thurs, April 1 1999
From: Peter Ferragine (pferragine@interhop.net)
Group: Green Day
Album: Kerplunk
Released: 1991 lookout records
Track: 2
Title: one for the razorbacks


verse

|-------------------------------------------------------------------------|
|-------------------------------------------------------------------------|
|-4-4-4-4-4-4-------------4-4-4-4-4-4-9-9-9-9-9-9-4-4-4-4---------4-4-x-x-|
|-4-4-4-4-4-4-4-4-4-4-4-4-4-4-4-4-4-4-9-9-9-9-9-9-4-4-4-4-4-4-4-4-4-4-x-x-|
|-2-2-2-2-2-2-4-4-4-4-4-4-2-2-2-2-2-2-7-7-7-7-7-7-2-2-2-2-4-4-4-4-2-2-x-x-|
|-------------2-2-2-2-2-2---------------------------------2-2-2-2---------|

chorus

|---------------------------------------|
|---------------------------------------|
|-----------9-9-9-9-9-4-4-4-4-4-4-4-4-4-|
|-4-4-4-4-4-9-9-9-9-9-4-4-4-4-4-4-4-4-4-|
|-4-4-4-4-4-7-7-7-7-7-2-2-2-2-2-2-2-2-2-|
|-2-2-2-2-2-----------------------------|

lyrics

juliet's tryin
to find out what she wants, but she don't know
experience has got her down, look this direction
i know it's not perfection, it's just me
i want to bring you up again now
i'm losing what's left of my dignity
a small price to pay to see that you're happy
forget all the disappointments you have faced
open up your worried world and let me in
juliet's crying
cause now she's realizing love can be
filled with pain and distrust
i know i am crazy, and a bit lazy
but i will try to bring you up again somehow
  development and support by
dmitry ivanov