rock
 
|tablatures   |lyrics   |discussion forums   |more tabs @ XGuitar.com

Green Day tabs

On The Wagon bass tab

Title: On The Wagon
Band: Green Day
Album: Shenanigans

Tabbed by: Ferdi Beck
june 2003

this is a great mellow song,
i guess the only reason it has not been tabbed yet is that its so easy.
you really have to do is listen for the rhythm, thats the key
its sort of a "one two, one two, one two, one two" kind of beat

intro
G------------------------------------------------------------------------------------------------------------------
D-----------------------------------------------------------------------------------------------------------------
A---------------------------------22-22-22-22-22-22-22-22-----------------44-44-44-44----------------44-44-44-44
E-22-22-22-22-22-22-22-22------------------------------------22-22-22-22----------------22-22-22-22----------------

verse
G-----------------------------------------------------------------------------------------------------------
D---------------------------------------------------------------------------------------------------------
A-------------------------------------22-22-22-22-22-22-22-22-------------------------44-44-44-44-44-44/22/11----
E-22-22-22-22-22-22-22-22------------------------------------22-22-22-22-22-22-22-22---------------------------44

G------------------------------------------------------------------------------------------------------------------
D------------------------------------------------------------------------------------------------------------------
A----------------------------------22-22-22-22-22-22-22-22-----------------44-44-44-44--------------------------
E-22-22-22-22-22-22-22-22------------------------------------22-22-22-22-----------------22-22-22-22-22-22-22-22

chorus  * = stop note suddenly.
G--------------------------------------------------------------------------------------------------
D--------------------------------------------------------------------------------------------------
A-22-22-22-22-22-22-22-22--------------------------------22-22-22-22-22-22-22-22/4*
E--------------------------------------1h2-22-22--1h2-22-22---------------------------------

G---------------------------------------------------------------------------------------------------------
D-------------------------------------------------------------------------------------------------------------
A-------------------------------------22-22-22-22-22-22-22-22---------------44-44-44-44-------------------------
E-22-22-22-22-22-22-22-22------------------------------------22-22-22-22-----------------22-22-22-22-22-22-22-22

during guitar 'solo', just play verse

thats as near as i can guess it.

enjoy.

any comments or whatever - ferdi@dublin.com
  development and support by
dmitry ivanov