rock
 
|tablatures   |lyrics   |discussion forums   |more tabs @ XGuitar.com

Green Day tabs

No Pride bass tab

Song: No Pride
Artist: Green Day
Album: Insomniac


Intro/Bridge
Gb--1h2--------------------------------------
Db-----------------------------------5h6-5------
Ab-------------6-6--4-4-4-4------6-6-------8-6--
Eb--------4-4----------------4-4----------------

Verse
Gb------------------------------------------
Db------------------------------------------
Ab------------6-6-6-6-6-4-4-4-4-4-----------
Eb--4-4-4-4-4---------------------4-4-4-4-4-

Gb-----------------------------------------------
Db--------------------------------5h6------------
Ab------------6-6-6-6-6-4-4-4-4-4----------------
Eb--4-4-4-4-4-------------------------4-4-4-4-4--

Chorus
Gb---------------------------------------------------------------
Db---------------------------------------------------------------
Ab--6-6-6-6-6-6-6---4-------6-6-6-6-6-6-6---4-------6-6-4-4-3-3--
Eb----------------------4-----------------------4----------------

Gb------------------------------------------------------
Db--------------------------6---------------------------
Ab----------3-3-3-3-4-4-4-4----------------------6-6-6--
Eb--4-4-4-4-------------------0-0-0-0-0-0-4-4-4-4--------

2nd Bridge/Outro
Gb---------------------
Db---------------------
Ab-------6-6--4-4-4-4--
Eb--4-4----------------



Intro X1
Verse X2
Chorus X1
Bridge X1
Verse X2
Chorus X1
Bridge X1
2nd Bridge X4
Chorus X1
Outro X4

This tab was created by Christian Mangs. Email me at 
Shadow145@hotmail.com
  development and support by
dmitry ivanov