rock
 
|tablatures   |lyrics   |discussion forums   |more tabs @ XGuitar.com

Green Day tabs

My Generation bass tab

"My Generation"
by Green Day off of their album 1,039/Smoothed out Slappy Hours
originally done by The Who


part 1


G:--------------------------------------
D:--------------------------------------
A:--------------------------------------
E:----3-3-333--1-1-111------------------

This part is repeated many times through the song.


part 2 (the bass solo)


G:---------------------------------------------
D:-------5-3-----------------------------------
A:-----------5-3-1-1-1-3-3---------------------
E:----3--------------------1-------------------


That's all.  Listen to the song to get the timing & rhythm.

transcribed by Justin Webb  

  development and support by
dmitry ivanov