rock
 
|tablatures   |lyrics   |discussion forums   |more tabs @ XGuitar.com

Green Day tabs

Minority bass tab

Song: Minority 
Band: Green Day 
Album: Warning

Tabbed By:
1) Mike R. (catch46@xoommail.com)   - first attempt
2) Alexandre Lima (rb.moc.1sitarg@gratis1.com.br)   - major corrections
3) Ali.Munn@talk21.com (thanks! corrections are always welcome!)
- corrections on the Verse4) Alexandre Lima (again!)
- corrections on Bridge5) Ali.Munn@talk21.com 
- more corrections to the Verse and fill on bridge Standard Tuning 
***- Small but crucial correction. Change tuning to half step down.***

Tuning : Half step down - (Eb, Ab, Db, Gb)

Intro: Guitar Chorus: 

   ||4x                                     ||
Gb:||---------|---------|---------|---------||
Db:||---------|---------|---------|---------||
Ab:||-3-3-3-3-|---------|---------|---------||
Eb:||---------|-1-1-1-1-|-3-3-3-3-|-1-1-1-1-|| 

  
Verse
   C        G        F        C        C        G        F        G
Gb:|-----------------|-----------------|-----------------|-----------------|
Db:|-----2-0---------|-3-3-2-0---------|-----2-0---------|-3-3-2-3---------|
Ab:|-3-3---------2-0-|---------3-3-2-0-|-3-3---------2-0-|-------------0-2-|
Eb:|---------3-3-----|-----------------|---------3-3-----|---------3-3-----|
 
  C        G        F        C        C        F        G        C   G
Gb:|-----------------|-----------------|-----------------|-----------------|
Db:|-----2-0---------|-3-3-2-0---------|-----2---3-3-2-0-|-----------------|
Ab:|-3-3---------2-0-|---------3-3-2-0-|-3-3---3---------|-----0-2-3-2-----|
Eb:|---------3-3-----|-----------------|-----------------|-3-3-------------| 


Chorus Bridge:(now it's more comfortable to play)

Gb:|------------------|------------------|
Db:|------------------|------------------|
Ab:|----------------7-|-8-8-8-8----------|
Eb:|-5-5-5-5-5-5-5----|----------8-8-8-8-|

Gb:|------------------|------------------|
Db:|------------------|------------------|
Ab:|------------------|------------------|
Eb:|-5-5-5-5-5-5-5--0-|-1-1-1-1--3-3-3-3-| 

Gb:|------------------|------------------|
Db:|------------------|------------------|
Ab:|----------------7-|-8-8-8-8----------|
Eb:|-5-5-5-5-5-5-5----|----------8-8-8-8-|
                                                     Bass Fill(instead of last bar)
Gb:|------------------|--------------------------|   |--------------------------|
Db:|------------------|--------------------------|   |------------------2-5-----|
Ab:|------------------|------------------------2-|   |---------------2-5------2-|
Eb:|-5-5-5-5-5-5-5--0-|-3-3--0-3-3--0-3-3--0-3---|   |-3-3--0-33-0-33-----------| 

Chorus
Verse
Chorus
Bridge
Verse 
(Repeat first 4 bars of verse)
Chorus x2 
Fade out w/ Chorus

I know there is something wrong w/ measure 4 of the verse . If you know what 
the correction is email me at " Imnotatweaker@metallica.com "
  development and support by
dmitry ivanov