rock
 
|tablatures   |lyrics   |discussion forums   |more tabs @ XGuitar.com

Green Day tabs

Maria bass tab

Band: Green Day
Song: Maria
Album: International Superhits
Bass player: Mike Dirnt
Notes: 1) There is also a version of Maria on Waiting single and it's faster :)
       2) i'm 100% sure that the bridge isnt correct, and also i'm not sure about 
          the verse 2, ofcourse if you have the correct tab PLEASE SEND IT TO 
          GREENDAY@PTT.YU, thats all folks have fun with the tab
web site: WWW.WOOK.CO.YU -my green day fan site!
Tabber: Vuk (greenday@ptt.yu and smor@tehnicom.net)

Intro/Verse 1 (this part is easy):
G|------------------------------------|
D|------------------------------------|
A|--5-5-5-5---------------------------|
E|----------0---0-0-0-0-0-0-0-0-0-0-0-|

Verse 2 (call me a freak but doesn't this part sound a little bit like FOD?):
G|--------------------|
D|--------------------|
A|-5-4-7-3-3-3-3------|
E|--------------------|


Chorus/Guitar Solo (it can't be simpler then this) :
G|--------------------|
D|--------------------|
A|-5-5-5-5------------|
E|---------5-5-5-5----|

Bridge (i know this is wrong):
G|--------------------|
D|--------------------|
A|-5-4-3-2-3-4-5------|
E|--------------------|
  development and support by
dmitry ivanov