rock
 
|tablatures   |lyrics   |discussion forums   |more tabs @ XGuitar.com

Green Day tabs

Macy's Day Parade guitar tab

Artist: Green Day
Song: Macy's Day Parade
Album: Warning
Email tannaleevs@yahoo.com

         C#5
Today's the macy's day parade
e---------------------------------
b---------------------------------
g---------------------------------
d---10---10---10---10---10---10
a---10---10---10---10---10---10
E---8----8----8----8----8-----8

                       A
the night of the living dead is on its way
e---------------------------------
b---------------------------------
g---------------------------------
d---7---7---7---7---7---7---7---7
a---7---7---7---7---7---7---7---7
E---5---5---5---5---5---5---5---5

            F#
G                                         C#5
with a credit report                           for duty
call                       it's a lifetime guarantee
e-----------------------------------------------------------------------------------------
b-----------------------------------------------------------------------------------------
g-----------------------------------------------------------------------------------------
d---3---3---3---3---3---3---3---------5---5---5---5---------10---10---10---10---10
a---3---3---3---3---3---3---3---------5---5---5---5---------10---10---10---10---10
E---1---1---1---1---1---1---1--------3---3---3---3----------8---8----8----8----8--
stuffed in a coffin 10%more free        red light special           at
the mausoleum
              A
F#                                G
e-----------------------------------------------------------------------------
b-----------------------------------------------------------------------------
g-----------------------------------------------------------------------------
d-----7-----7-----7-----7-----7-----3-----3-----3-----3-----5-----5-----5
a-----7-----7-----7-----7-----7-----3-----3-----3-----3-----5-----5-----5
E-----5-----5-----5-----5-----5-----1-----1-----1-----1-----3-----3-----3

give me something that i need   satisfaction guaranteed to you
what's the consolation prize
              F#
G                                           F#
e----------------------------------------------------------------------------------------------
b----------------------------------------------------------------------------------------------
g----------------------------------------------------------------------------------------------
d-----3-----3-----3-----3-----5-----5-----5-----5-----5-----5-----3-----3-----3-----3-----3
a-----3-----3-----3-----3-----5-----5-----5-----5-----5-----5-----3-----3-----3-----3-----3
E-----1-----1-----1-----1-----3-----3-----3-----3-----3-----3----1-----1----1-----1-----1

economy size dreams of hope            when i was a kid i thought    i
wanted all the things that i haven't got
 G                               C#5
C#5                                   A
e----------------------------------------------------------------------------------------------------------
b----------------------------------------------------------------------------------------------------------
g----------------------------------------------------------------------------------------------------------
d-----5-----5-----5-----10-----10-----10-----10-----10-----10-----7-----7-----7-----7-----7-----7---
a-----5-----5-----5-----10-----10-----10-----10-----10-----10-----7-----7-----7-----7-----7-----7---
E-----3-----3-----3-----8-----8------8------8------8------8--------5-----5-----5-----5-----5-----5---

oh,but ilearned the hardest way   then i realized what it took to tell
the difference between theives and crooks
          F#                    G
C#5
A                                               F#
e------------------------------------------------------------------------------------------------------------
b------------------------------------------------------------------------------------------------------------
g------------------------------------------------------------------------------------------------------------
d--3--3--3--3--3--3--5--5--5--5--10--10--10--10---7--7--7--7--7--7--7--7--7--7--7--3--3--3--3--3--3
a--3--3--3--3--3--3--5--5--5--5--10--10--10--10---7--7--7--7--7--7--7--7--7--7--7--3--3--3--3--3--3
E--1--1--1--1--1--1--3--3--3--3--8---8---8---8-----5--5--5--5--5--5--5--5--5--5--5--1--1--1--1--1--1

when all along was me and you     give me something that i need
satisfaction guaranteed  because im thinking of a
                 G
F#
G                              C#5
e-----------------------------------------------------------------------------------------------------------------
b-----------------------------------------------------------------------------------------------------------------
g-----------------------------------------------------------------------------------------------------------------
d----5----5----5----5----5----5----3----3----3----3----3----3----5----5----5----5----5----10----10----10----10
a----5----5----5----5----5----5----3----3----3----3----3----3----5----5----5----5----5----10----10----10----10
E----3----3----3----3----3----3----1----1----1----1----1----1----3----3----3----3----3----8----8----8--------8

brand new hope the one i've never known'cause now iknow it's all that i
wanted
    A
F#                                 G                 C#5
e----------------------------------------------------------------------------------
b----------------------------------------------------------------------------------
g----------------------------------------------------------------------------------
d---7---7---7---7---7---7---3---3---3---3---3---3---5---5---5---10---10---10
a---7---7---7---7---7---7---3---3---3---3---3---3---5---5---5---10---10---10
E--5---5---5---5---5---5---1---1---1---1---1---1---3---3---3----8----8----8



solo    repeat 4x
                C#5                        A
F#                  G
e----------------------------------------------------------------------------
b----------------------------------------------------------------------------
g----------------------------------------------------------------------------
d---10---10---10---10---10---7---7---7---7---3---3---3---3---5---5---5
a---10---10---10---10---10---7---7---7---7---3---3---3---3---5---5---5
E---8-----8-----8----5----5---5---5---5---5---1---1---1---1---3---3---3
what's the consolation prize?  economy size dreams of hope give me
something that i need   satisfaction guaranteed
     F#
G
F#                              G
e------------------------------------------------------------------------------------------------------------------
b------------------------------------------------------------------------------------------------------------------
g------------------------------------------------------------------------------------------------------------------
d---3---3---3---3---3---3---3-----5----5----5----5----5----5----5----3----3----3---3----5----5----5----5----5
a---3---3---3---3---3---3---3-----5----5----5----5----5----5----5----3----3----3---3----5----5----5----5----5
E---1---1---1---1---1---1---1-----3----3----3----3----3----3----3----1----1----1----1---5----3----3----3----3

because im thinking of a brand new hope  the one i've never known   and
where it goes
   C#5                                A
F#                                   G
e----------------------------------------------------------------------------------------
b-----------------------------------------------------------------------------------------
g-----------------------------------------------------------------------------------------
d---10---10---10---10---7---7---7---7---7---3---3---3---3---3---3---5---5---5---5
a---10---10---10---10---7---7---7---7---7---3---3---3---3---3---3---5---5---5---5
E---8----8---8-----8----5---5---5---5---5---1---1---1---1----1---1---3---3---3---3

and i'm thinking about the only road  the one i've never known and where
it goes
    C#5                              A
F#                     G
e---------------------------------------------------------------------------------
b---------------------------------------------------------------------------------
g---------------------------------------------------------------------------------
d---10---10---10---10---7---7---7---7---7---3---3---3---3---5---5---5---5
a---10---10---10---10---7---7---7---7---7---3---3---3---3---5---5---5---5
E---8----8----8----8----5---5---5---5---5---1---1---1---1---3---3---3---3

because i'm thinking about  a brand new hope  the one i've never known
'cause i know thats all that i wanted
   C#5                                   A
F#
G                                 C#5
e------------------------------------------------------------------------------------------------------------
b------------------------------------------------------------------------------------------------------------
g------------------------------------------------------------------------------------------------------------
d-10-10-10-10-10-10-10--7--7--7--7--3--3--3--3--3--3--3--3--3--3--5--5--5--5--5--5--5--5--10--10--10
a-10-10-10-10-10-10-10--7--7--7--7--3--3--3--3--3--3--3--3--3--3--5--5--5--5--5--5--5--5--10--10--10
E-8-8-8-8-8-8-8-8-8-8-8--5--5--5--5--1--1--1--1--1--1--1--1--1--1--3--3--3--3--3--3--3--3--8--8--8--8

song ending      C#5
e----------------------------------
b----------------------------------
g----------------------------------
d-10-10-10-10-10-10-10-10-10
a-10-10-10-10-10-10-10-10-10
E-8--8--8--8--8--8--8--8--8--8

well here is the chords enjoy  Email me songs from the new album
  development and support by
dmitry ivanov