rock
 
|tablatures   |lyrics   |discussion forums   |more tabs @ XGuitar.com

Green Day tabs

Letterbomb bass tab

Artist: Green Day
Song: Letterbomb
Album: American Idiot
Tabbed by: Llama!
Standard tuning (EADG)

Intro - Bass enters at 0:23
G|------------------------------------------------
D|----------------66666666--------------77777777-- Repeat without
A|--2/77777777--------------44444444-------------- slide from 2nd
E|------------------------------------------------ fret


0:45 - Verse
G|------------------------------------------------
D|-------------77777777--4444--7777---------------
A|--77777777--------------------------77777777----
E|------------------------------------------------
                                                     1st time
G|------------------------------------------------  ----------
D|--6666--------6666--------7777--4444------------  ----------
A|--------4444--------4444--------------2-2-------  --2222----
E|-------------------------------------------5p0--  ----------

    2nd time
G|---------------------------
D|---------------------------
A|--222------222-------2222--
E|-------5p0------5p0--------


1:30 - Bridge
G|-----------------------------------------------------------
D|-----------------------------------------------------------
A|--------------------------------222222-----2222----2----2--
E|--5p0--555555--5p0--555555--5p0--------5p0------0----0-----


1:41 - Chorus
G|------------------------------------------------
D|------------------------------------------------
A|--7777--2222--00000000---7777--2222--00000000---
E|------------------------------------------------

G|-----------------------------------------------
D|-----------------------------------------------
A|--7777--2222--00000033---7777--2222--00000000--
E|-----------------------------------------------

2:02
G|---------
D|---------
A|------0--
E|---2-----


2:10 - Bridge II
G|------------------------------------------
D|------------66666666------------77777777--
A|--77777777------------44444444------------  x3
E|------------------------------------------

2:42
G|------------------------------------------------------------
D|------------------------------------------------------------
A|-------222222-------222222-------------------2222----2---2--
E|--5p0----------5p0---------5p0--555555--5p0--------0---0----

2:53 - Repeat Chorus

3:14 - Repeat Bridge II


3:36 - Outro
G|--------------------------------
D|--------------------------------
A|--7--7-7---7--7-7---7--7-7---7--
E|--0--0-0---0--0-0---0--0-0---0--

Et fini.
  development and support by
dmitry ivanov