rock
 
|tablatures   |lyrics   |discussion forums   |more tabs @ XGuitar.com

Green Day tabs

Last Ride In bass tab

band: Green Day
song: Last Ride In
album: Nimrod
tab: Megan Barry (mtmbarry@juno.com)

*This is all my own work*

This is a correction to Craig Oxley's.  It contains the whole song, and
an easier way to play it.

Bass:

Riff:

G---------------------------
D---------------------------
A---2-------2---0-------0---
E-------2-----------0-------

Other Part:

G-------------------------------
D-------------------------------
A-------------------------------
E---0---0---0---0---1---0---1---

G-----------------------------------
D---4---4---4---2---1---------------
A-----------------------4---4---2---
E-----------------------------------

G-------------------------------
D-------2-------2-----------4---
A-----------------------4-------
E---0-------0-------2-----------
  development and support by
dmitry ivanov