rock
 
|tablatures   |lyrics   |discussion forums   |more tabs @ XGuitar.com

Green Day tabs

Knowledge guitar tab

SONG:   Knowledge 
ARTIST: Green Day 
ALBUM:  Bowling Bowling Bowling Parking Parking (Reprise) 

Main Riff 
   C                         A#    F 
e ----------------------------------------------
B ---------------------------------------------- 
G -5-x-x-5-x-x-5-x-x-5-5-5-3--3-3--------------- 
D -5-x-x-5-x-x-5-x-x-5-5-5-3--3-3--3-3-3-3------ 
A -3-x-x-3-x-x-3-x-x-3-3-3-1--1-1--3-3-3-3------ 
E ---------------------------------1-1-1-1------

Solo (with blusey ending)
e ------------------------------------ 
B -6-5-3-------6-5-3-------4-4-3------  (Repeat Twice-ish) 
G -------5-5-5-------5-5-5-------3---- 
D ---------------------------------3-- 
A ------------------------------------ 
E ------------------------------------ 
              
I know things are getting tougher 
When you can't get the top off the bottom of the barrel. 
Wide open road of my future now... 
It's looking fucking narrow. 

All I know is that I don't know nothing. 

We get told to decide. 
Just like as if I'm not going to change my mind. 
 
All I know is that I don't know nothing. 
 
Whatcha gonna do with yourself, 
Boy better make up your mind... 
Whatcha gonna do with yourself son, 
You're running out of time. 

All I know is that I don't know nothing... 
And that's fine. 


*Transcribed by Richard Atherton*
This is how it goes on "Bowling...". I think! There's a bit 
more to the solo but you'll have to figure it out yourselves.
I've only been playing since March, leave me alone! E-Mail
all kinds o' crap to me at: guitarist@punkrocker.co.uk
Happy strummin'
  development and support by
dmitry ivanov