rock
 
|tablatures   |lyrics   |discussion forums   |more tabs @ XGuitar.com

Green Day tabs

Knowledge bass tab

"Knowledge"

by Green Day on their album 1,039/Smoothed out slappy hours
originally done by Operation Ivy

part 1

G:------------7--------------------------------------------------
D:------4-5-7---7-5-4-0---2-3-4----------------------------------
A:----5-----------------3-------5---2-3-4------------------------
E:--------------------------------3------------------------------

part 2

G:------------7--------------------------------------------------
D:------4-5-7---7-5-4-5-7-5-4------------------------------------
A:----5-----------------------5---2-3-4--------------------------
E:------------------------------3--------------------------------

part 3

G:---------------------------------------------------------------
D:-------7------7----7-----5h7p5----5------5---------------------
A:---------------------5h7-------------------0---2-3-4-----------
E:----5----0h5----5--------------3----0h3------3-----------------

part 4

G:---------------------------------------------------------------
D:---------------------------------2-3-4-------------------------
A:----5-5-5-5--3-3-3-3--5-5-5-5--3-------5---2-3-4---------------
E:-----------------------------------------3---------------------


That's it.  Listen to the song to get the timeing down and to know
when to play each part.

Transcribed by Justin Webb 
  development and support by
dmitry ivanov