rock
 
|tablatures   |lyrics   |discussion forums   |more tabs @ XGuitar.com

Green Day tabs

Jinx bass tab

Green Day-jinx
Jinx

Intro
g---------------------|3 times	|--------------------|
d---------------------|	then...	|--------------------|
a-----3-3-5--555-5555-|		|-----3-3-5-5555-/12\|
e-3-3-----------------|		|-3-3----------------|

Verse
g-------------------------------------------------------------------|
d-------------------------------------------------------------------|
a---------5-55-55--------3---------3-33-33-3-33-33------------------|
e-3-33-33---------3-3-33---333-333-----------------3-3-333-3-33-333-|

g-------------------------------------------------------------------|
d--------------------------------------4h5-2-22-22------------------|
a-3-33-33-3-33-33-----5-777-7-77-3-33-3------------5-5-5555-53322---|
e-----------------3-3--------------------------------------------55-|

Bridge
g--------------------------------------------------------------5----|
d------------------------------------------------------------77-75--|
a---------3-33-33-5-55-55-5-55-55---------3-33-33-5-55-55-5-5-----7-|
e-3-33-33-------------------------3-33-33---------------------------|

g-------------------------------------------------------------------|
d-5-55-55-----------------------------------------------------------|
a---------3-33-33-5-55-55-5-55-55---------3-33-33-5-55-55-5-55-5555-|
e---------------------------------3-33-33---------------------------| 
  development and support by
dmitry ivanov