rock
 
|tablatures   |lyrics   |discussion forums   |more tabs @ XGuitar.com

Green Day tabs

Jesus Of Suburbia bass tab

Band:Green Day
Song:Jesus Of Suburbia
Album:American Idiot

Tabbed by Kyle Gayne

I) Jesus Of Suburbia (Timing 4/4)

Verse
G:------------------------------------------------------------------|
D:------------------------------------------------------------------|
A:-4--4--4-4-------1--1--1-1----------------------------------------|x2
E:---------------------------------22222222222222224444444444444444-|

Chorus
G:--------------------------------------------------|
D:--------------------------------------------------|
A:--------------------------------------------------|x1
E:-2-2-2224-44444442-2-2224-44444442-2-2224-4444----|

G:----------------------------------|
D:----------------------------------|
A:-4-44------------4-44-------------|x1
E:-----4442-2222222----4442-2222222-|

Repeat:
Verse
Chorus

Transition
G:------------------------------------------------------------------|
D:------------------------------------------------------------------|
A:-4--4--4-4-------1--1--1-1----------------------------------------|x1
E:---------------------------------22222222222222224444444444444444-|

G:------------------------------------------------------------------|
D:------------------------------------------------------------------|
A:-4--4--4-4-----------------------1--1--1--------------------------|x1
E:-----------------1--1--1-1---------------4--4--4-2~~~~~~~---------|

G:------------------|
D:------------------|
A:------------------|x1
E:-4~~~~~~~---------|

II) City Of The ***ed (Timing 4/4)

Verse
G:------------------------------------------------------------------|
D:------------------------------------------------------------------|
A:-44444---33333---11111--------------------------------------------|x2
E:-------------------------44444---2-2-2-2-2-2-2-2-4-4-4-4-4-4-4-4--|

Chorus
G:------------------------------------------------------------------|
D:------------------------------------------------------------------|
A:-11111-----------44444-----------1-1-1-1--------------------------|x2
E:---------44444-----------22222-----------4-4-4-4-2-2-2-2-2-2-2-2--|

Repeat:
Verse

Chorus/Transition
G:------------------------------------------------------------------|
D:------------------------------------------------------------------|
A:-11111-----------44444-----------1-1-1-1--------------------------|x1
E:---------44444-----------22222-----------4-4-4-4-2-2-2-2-2-2-2-2--|

G:-------------------------------------------------------------------|
D:-------------------------------------------------------------------|
A:-11111-----------44444-----------1-1-1-1---------------------------|x1
E:---------44444-----------22222-----------4-4-4-4-2222222222222222/-|

G:----------------------------------|
D:----------------------------------|
A:----------------------------------|x1
E:-14141414141414141414141414141414-|

III) I Don't Care (Timing 3/4)

Chorus
G:--------------------------------------------------|
D:--------------------------------------------------|
A:-------4-4-4-------4-4-4-------4-4-4--------------|x5
E:-44-44-------44-44-------22-22-------44-44-4-4-4--|

Verse
G:------|  |--------------------------------------------------|
D:------|  |--------------------------------------------------|
A:------|x1|-4-44-44-44-44-44-44-----4-44-44-44-44-44-44------|x6
E:-2-4--|  |---------------------5-4---------------------5-4--|

G:--------------------------|  |--------------------------|
D:--------------------------|  |--------------------------|
A:---------------------4----|x3|--------------------------|x1
E:-2-22-22-22-24-44-44---4--|  |-2-22-22-22-24-44-44-2-4--|

Transition
G:--------------------------------------------------|
D:--------------------------------------------------|
A:-4-44-44-44-44-44-44-----4-44-44-44-44-44-44------|x2
E:---------------------2-4---------------------2-4--|

G:-----------------|
D:-----------------|
A:-4--4--4--4------|x1
E:-------------444-|

IV) Dearly Beloved (Timing 4/4)

Intro
G:----------------------------------|
D:----------------------------------|
A:----------------------------------|x1
E:-4-4-4-4-4-4-4-4-4-4-4-4-4-4-4-4--|

Verse
G:------------------------------------------------------------------|
D:------------------------------------------------------------------|
A:-----------------3-3-3-3-3-3-3-3-4-4-4-4-4-4-4-4---------6-6-6-6--|x6
E:-4-4-4-4-4-4-4-4---------------------------------4-4-4-4----------|

V) Tales Of Another Broken Home (Timing 3/4)

Intro
G:--------------------------------------------------------------|
D:-66-66-66-666---66-66-66-666---66-66-66-666---66-66-66-666----|
A:---------------4--------------4--------------4--------------4-|x1
E:-------------2--------------2--------------2--------------2---|

Verse
G:--------------------------------------------------------------|
D:--------------------------------------------------------------|
A:---------------4--------------4--------------4--------------4-|x2
E:-44-44-44-4442--44-44-44-4442--44-44-44-4442--44-44-44-4442---|

Chorus 1
G:--------------------------------------------------------------|
D:--------------------------------------------------------------|
A:-4-----4----4---6-----6----6---4-----4----4---6-----6----6----|x1
E:----4-----4---4----4-----4---4----4-----4---4----4-----4---4--|

Repeat:
Verse

Chorus 2
G:--------------------------------------------------------------|
D:--------------------------------------------------------------|
A:-4-----4----4---6-----6----6---4-----4----4---6-----6----6----|x1
E:----4-----4---4----4-----4---4----4-----4---4----4-----4---4--|

G:--------------------------------------------------------------|
D:--------------------------------------------------------------|
A:-4-----4----4---6-----6----6---4-----4----4---6-----6-------4-|x1
E:----4-----4---4----4-----4---4----4-----4---4----4-----4--2---|

Bridge
G:--------------------------------|
D:--------------------------------|
A:---------------4--------------4-|x1
E:-------------2--4-----------2---|

Repeat:
Verse
Chorus 1

Rest until 8:47

Outro
G:--------------------------------------------------------------|
D:--------------------------------------------------------------|
A:---------------4--------------4--------------4--------------4-|x1
E:-44-44-44-4442--44-44-44-4442--44-44-44-4442--44-44-44-4442---|

G:-----------------------------------|
D:-----------------------------------|
A:---------------4--------------4----|x1
E:-4-----------2--4-----------2--4---|

That's it! If you follow this from start to finish it's the whole
song with every single part included. Enjoy!
  development and support by
dmitry ivanov