rock
 
|tablatures   |lyrics   |discussion forums   |more tabs @ XGuitar.com

Green Day tabs

Jaded guitar tab


Date: Wed, July 21 1999
From: Peter Ferragine (pferragine@interhop.net)
Group: Green Day
Album: Insomniac
Released: 1995 reprise records
Track: 11
Title: jaded


verse

|---------------|
|---------------|
|-----------6-6-|
|-6-6-6-4-4-6-6-|
|-6-6-6-4-4-4-4-|
|-4-4-4-2-2-----|

chorus

|-------------------------------------------------------------------
|-------------------------------------------------------------------
|-6-6-6-6-6-6-6-6-6-6-------------------------6-6-6-6-6-6-6-6-6-6-6-
|-6-6-6-6-6-6-6-6-6-6-6-6-4-4-6-6-6-6-4-4-6-6-6-6-6-6-6-6-6-6-6-6-6-
|-4-4-4-4-4-4-4-4-4-4-6-6-4-4-6-6-6-6-4-4-6-6-4-4-4-4-4-4-4-4-4-4-4-
|---------------------4-4-2-2-4-4-4-4-2-2-4-4-----------------------

 ---------------------|
 ---------------------|
 -8-8-8-8-8-8-8-8-8-8-|
 -8-8-8-8-8-8-8-8-8-8-|
 -6-6-6-6-6-6-6-6-6-6-|
 ---------------------|
 
lyrics

somebody keep my balance i think i'm falling off
into a state of regression
the expiration date rapidly coming up
it's leaving me behind to rank
always move forward and going "straight" will get you nowhere
there is no progress, evolution killed it all
i found my place in nowhere
i'm taking one step sideways leading with my crutch
got a fucked up equilibrium
count down from 9 to 5 hooray! we're gonna die!
blessed into our extinction
  development and support by
dmitry ivanov