rock
 
|tablatures   |lyrics   |discussion forums   |more tabs @ XGuitar.com

Green Day tabs

In The End guitar tab

Green Day (Dookie)

IN THE END - tabbed by Peter Ferragine 


verse

|-----------------------------------------------------------------|
|-----------------------------------------------------------------|
|-----------------------------------------------------------------|
|-6-6-6-6-6-6-6-6-4-4-4-4-4-4-4-4-6-6-6-6-6-6-6-6-4-4-4-4-4-4-4-4-|
|-6-6-6-6-6-6-6-6-4-4-4-4-4-4-4-4-6-6-6-6-6-6-6-6-4-4-4-4-4-4-4-4-|
|-4-4-4-4-4-4-4-4-2-2-2-2-2-2-2-2-4-4-4-4-4-4-4-4-2-2-2-2-2-2-2-2-|

chorus

|-----------------------------------------------------------------
|-----------------------------------------------------------------
|-6-6-6-6-6-6-6-6-8-8-8-8-8-8-8-8---------------------------------
|-6-6-6-6-6-6-6-6-8-8-8-8-8-8-8-8-6-6-6-6-6-6-6-6-3-3-3-3-3-3-3-3-
|-4-4-4-4-4-4-4-4-6-6-6-6-6-6-6-6-6-6-6-6-6-6-6-6-3-3-3-3-3-3-3-3-
|---------------------------------4-4-4-4-4-4-4-4-1-1-1-1-1-1-1-1-

 ---------------------------------|
 ---------------------------------|
 -6-6-6-6-6-6-6-6-8-8-8-8-8-8-8-8-|
 -6-6-6-6-6-6-6-6-8-8-8-8-8-8-8-8-|
 -4-4-4-4-4-4-4-4-6-6-6-6-6-6-6-6-|
 ---------------------------------|

lyrics

all brawn and no brains and all those nice things
you finally got what you want
someone to look good with and light your cigarette
is this what you really want?
i figured out what you're all about
and i don't think i like what i see soooo.....
i hope i won't be there in the end if you come around
how long will he last before he's a creep in the past
and you're alone once again?
will you pop up again and be my "special friend" 'til the end?
and when will that be?

Transcribed by Peter Ferragine  July 4 1999
  development and support by
dmitry ivanov