rock
 
|tablatures   |lyrics   |discussion forums   |more tabs @ XGuitar.com

Green Day tabs

I Want To Be On TV bass tab

Band:  Green Day
Song:  I Want To Be On TV
Album:  Shenanigans
Bassist:  Mike Dirnt
Tuning: E A D G

h-means Hammer on   ~:  Let note ring

Intro/Verse

  Bass comes in about 3 seconds in.
G----------------------------------
D----------------------------------
A----1h3-1h3-1h3-1h3---11111-------   Do this about 7 times, it speeds up when Bille start singing
E----------------------------------



Chorus

G------------------------------------------
D------------------------------------------ Do this twice
A----------------2-2-2-2-333333-4-4-5-5----
E---5-5-5-5--------------------------------


Verse
G----------------------------------
D----------------------------------   Back to verse, about 4 Times
A----1h3-1h3-1h3-1h3---11111-------
E---------------------------------


Chorus
G------------------------------------------
D------------------------------------------
A----------------2-2-2-2-3-3-4-4-5-5------   2x
E---5-5-5-5------------------------------


Verse
G----------------------------------
D----------------------------------
A----------------------------------  4x
E------1h3-1h3-1h3-1h3-1-1-1------


Chorus
G------------------------------------------
D------------------------------------------
A----------------2-2-2-2-3-3-4-4-5-5------
E---5-5-5-5------------------------------



Ending

G--------------------
D--------------------   4x
A----1h3-1h3-1h3-1h3~
E--------------------


G-------------
D-------------
A--1h3~~~-----
E-------------
  development and support by
dmitry ivanov