rock
 
|tablatures   |lyrics   |discussion forums   |more tabs @ XGuitar.com

Green Day tabs

I Want To Be Alone guitar tab


Date: Fri, March 19 1999
From: Peter Ferragine (pferragine@interhop.net)
Group: Green Day
Album: 1039/smoothed out slappy hours
Released: 1990 lookout records
Track: 19
Title: i want to be alone

pm - palm mute


intro
pm___| |_____| |_____| |_____|
|-----------------------------------------------------------------|
|-----------------------------------------------------------------|
|-----2-------0-------2-------0-------0-------0-------0-------0---|
|-0-0---0-0-0---0-0-0---0-0-0-------0---0---0---0---0---0---0---0-|
|---------------------------------5-------3-------5-------3-------|
|-----------------------------------------------------------------|

verse/chorus

|-----------------------------------------------------------------|
|-----------------------------------------------------------------|
|---------------------------------7-7-7-7-7-7-7-7-4-4-4-4-4-4-4-4-|
|-5-5-5-5-5-5-5-5-7-7-7-7-7-7-7-7-7-7-7-7-7-7-7-7-4-4-4-4-4-4-4-4-|
|-5-5-5-5-5-5-5-5-7-7-7-7-7-7-7-7-5-5-5-5-5-5-5-5-2-2-2-2-2-2-2-2-|
|-3-3-3-3-3-3-3-3-5-5-5-5-5-5-5-5---------------------------------|

lyrics

i lock myself inside my room, I WANNA BE ALONE
with you around you'll only add on
with you around you'll only add on
just let me be alone with my thoughts
please don't think i'm crazy, i don't want you to understand
my mind is growing hazy, to hell with your helping hand
why don't you just leave me alonethis conflict is my own
keep your sources away from me that's all
  development and support by
dmitry ivanov