rock
 
|tablatures   |lyrics   |discussion forums   |more tabs @ XGuitar.com

Green Day tabs

I Want To Be Alone bass tab

Song: I Want to be Alone
Artist: Green Day
Album: 39/Smooth

Intro/Bridge
G-------------
D-------------
A--5-3-5-3-5--
E-------------

Chorus					  X3 
G----------------------------------4-2-0----|---------------------------
D----------------------------------------2--|---------------------------
A------------------5-5-5-5-2-2-2-2----------|------------------5-5-5-5--
E--3-3-3-3-5-5-5-5--------------------------|--3-3-3-3-5-5-5-5----------

Verse/Outro
G---------------------------
D---------------------------
A-5-5-5-5-5-5-5-5--3-5-3-5--
E---------------------------

Solo 			    X3
G-----------------------------|-----------------------2-3-4-5--------
D-----------------------------|-----------------3-4-5---------5-4-3--
A-5-5-5-5-5-5-5-5--5-3-5-3-5--|-5-5-5-5-5-5-5-5----------------------
E-----------------------------|--------------------------------------

Intro X4
Chorus X1
Verse X5
Chorus X1
Verse X2
Solo X1
Verse X1
Bridge X4
Chorus X1
Outro X4

This tab was created by Christian Mangs. Email me at:
Shadow145@hotmail.com
  development and support by
dmitry ivanov