rock
 
|tablatures   |lyrics   |discussion forums   |more tabs @ XGuitar.com

Green Day tabs

Homecoming bass tab

--------------------------------------------------------------------------------------
Green Day Homecoming
--------------------------------------------------------------------------------------
(I have separated each part of this song just like it is on the CD, and I have tabbed
each part of it as separate songs, OKAY!

--------------------------------------------------------------------------------------
I. Death of ST. Jimmy
--------------------------------------------------------------------------------------

Intro
G|--------------------------|--------------------------|--------------------------|
D|--------------------------|--------------------------|--------------------------|
A|--------------5-4---------|--------------5-4---------|--------------5-4---------|
E|-5-5-0-0-0-0------5-x-x-x-|-5-5-0-0-0-0------5-x-x-x-|-5-5-0-0-0-0------5-x-x-x-|

G|--------------------------|--------------------------|--------------------------|
D|--------------------------|--------------------------|--------------------------|
A|--------------5-4---------|--------------5-4---------|--------------5-4---------|
E|-5-5-0-0-0-0------5-x-x-x-|-5-5-0-0-0-0------5-x-x-x-|-5-5-0-0-0-0------5-x-x-x-|

G|---------------------------|---------------------|------------------------------|
D|---------------------------|---------------------|------------------------------|
A|-7\2p0---------------------|---------------------|--------------------------5---|
E|-------0-0-0-0-0-0-5-5-5-5-|-0-0-0-0-0-0-5-5-5-5-|-0-0-0-0-0-0-x-x-x-0-0--5---5-|

Verse
G|--------------------------|---------------------------------------------------|
D|--------------------------|---------------------------------------------------|
A|------5---------5--4------|-----------5-5-5-5--------5-4----------------------|
E|-5~~-----0---5--------5-0-|-5~-5-5-5-----------0--5-------5--0-0-0-0-0-0------|

G|-----------------------------------------|-----------------------------------------|
D|-----------------------------------------|-----------------------------------------|
A|----------------------5-4----------------|-----------------------5-4---------------|
E|5-5-5-5----------0-5-------5-0-0-0-0-0-0-|-5-5-5-5----------0-5-------5-0-0-0-0-0-0|

G|-----------------------------------------|-----------------------------------------|
D|-----------------------------------------|-----------------------------------------|
A|----------------------5-4----------------|-----------------------5-4---------------|
E|5-5-5-5----------0-5-------5-0-0-0-0-0-0-|-5-5-5-5----------0-5-------5-0-0-0-0-0-0|

Chorus (im not sure on the strumming pattern here, but you get the idea)
G|----------------------------------|-------------------------------------------|
D|----------------------------------|-------------------------------------------|
A|--------------------------0-0-0-0-|--------------------------0-0-0-0----------|
E|---2-2-2-2--2-2-2-2--0-0----------|---2-2-2-2--2-2-2-2--0-0-------------------|

G|----------------------------------|-------------------------------------------|
D|----------------------------------|-------------------------------------------|
A|--------------------------0-0-0-0-|-5-5-5-5--5-4------------------------------|
E|---2-2-2-2--2-2-2-2--0-0----------|---------------5-0-------------------------|

Order

Intro
Verse
Chorus
Verse
Chorus (but don't play the first bar - the one with the let ring bits on it)



--------------------------------------------------------------------------------------
II. East 12th street (2.23)
--------------------------------------------------------------------------------------

Intro
G|------------------------------------------------------------------------------|
D|------------------------------------------------------------------------------|
A|------------------------------------------------------------------------------|
E|-x-x-x-x-x-x-x----------------------------------------------------------------|

Intro (Continued)
G|----------------|---------------|---------------|---------------|-------------|
D|----------------|---------------|---------------|---------------|-------------|
A|-----5----------|----5----------|----5----------|----5----------|-------------|
E|--5-----5--3--5-|-5-----5--3--5-|-5-----5--3--5-|-5-----5--3--5-|-x-x-x-x-----|

G|----------------|---------------|---------------|---------------|-------------|
D|----------------|---------------|---------------|---------------|-------------|
A|-----5----------|----5----------|----5----------|----5----------|-------------|
E|--5-----5--3--5-|-5-----5--3--5-|-5-----5--3--5-|-5-----5--3--5-|-x-x-x-x-----|

G|----------------|---------------|---------------|---------------|-------------|
D|----------------|---------------|---------------|---------------|-------------|
A|-----5----------|----5----------|----5----------|----5----------|-------------|
E|--5-----5--3--5-|-5-----5--3--5-|-5-----5--3--5-|-5-----5--3--5-|-x-x-x-x-----|

Verse
G|---------------------------|----------------------|---------------------------|
D|---------------------------|----------------------|---------------------------|
A|-5-5-5-5-----------5-5-5-5-|----------------------|-5-5-5-5-----------5-5-5-5-|
E|----------3-3-3-3----------|-3-3-3-3--5-5-5-5-5-5-|----------3-3-3-3----------|

G|--------------------------|---------------------------|-----------------------|
D|--------------------------|---------------------------|-----------------------|
A|--------------------------|-5-5-5-5-----------5-5-5-5-|-----------------------|
E|-3-3-3-3-3-3-3-3--5-5-5-5-|----------3-3-3-3----------|-3-3-3-3--5-5-5-5-5-5--|

G|---------------------------|--------------------------------------------------|
D|---------------------------|--------------------------------------------------|
A|-5-5-5-5-----------5-5-5-5-|-----------------------5-5-5-5--------------------|
E|----------3-3-3-3----------|-3-3-3-3--5-5-5-5-5-5-----------------------------|

Post verse (This bit swaps between acoustic bass and electric bass)
Acoustic                 | Electric
G|-----------------------|------------------------------------------------------|
D|-0-0-0-0--0--0--0-0--0-|------------------------------------------------------|
A|-----------------------|-5-5-5-5-------------5--------------------------------|
E|-----------------------|----------5--3--5-5-----------------------------------|

Acoustic                 | Electric
G|-----------------------|------------------------------------------------------|
D|-0-0-0-0--0--0--0-0--0-|------------------------------------------------------|
A|-----------------------|-5-5-5-5-------------5--------------------------------|
E|-----------------------|----------5--3--5-5-----------------------------------|

Acoustic                 | Electric
G|-----------------------|------------------------------------------------------|
D|-0-0-0-0--0--0--0-0--0-|------------------------------------------------------|
A|-----------------------|-5-5-5-5-------------5--------------------------------|
E|-----------------------|----------5--3--5-5-----------------------------------|

Acoustic                 | Electric
G|-----------------------|------------------------------------------------------|
D|-0-0-0-0--0--0--0-0--0-|------------------------------------------------------|
A|-----------------------|-5-5-5-5-------------5--------------------------------|
E|-----------------------|----------5--3--5-5-----------------------------------|

Chorus
G|----------------------------------|-------------------------------------------|
D|----------------------------------|-------------------------------------------|
A|-3-3-3-3-3-3-3-3------------------|-3-3-3-3-3-3-3-3---------------------------|
E|------------------5-5-5-5-5-5-5-5-|------------------5-5-5-5-5-5-5-5----------|

G|----------------------------------|-------------------------------------------|
D|----------------------------------|-------------------------------------------|
A|-3-3-3-3-3-3-3-3------------------|-3-3-3-3-3-3-3-3---------------------------|
E|------------------5-5-5-5-5-5-5-5-|------------------5-5-5-5-5-5-5-5----------|
Outro
G|------------------------------------------------------------------------------|
D|------------------------------------------------------------------------------|
A|-3-3-3-3-----------3-3-3-3-----------3-3-3-3-----------3-3-3-3----------------|
E|----------5-5-5-5-----------5-5-5-5-----------5-5-5-5-----------5-5-5-5-------|

Outro part 2
G|------------------------------------------------------------------------------|
D|------------------------------------------------------------------------------|
A|-5---3------------5-5-5--------5----------------------------------------------|
E|---------3---5-----------3--5-------------------------------------------------|

Order

Intro
Verse
Post Verse
Chorus
Outro



--------------------------------------------------------------------------------------
III. Nobody likes you (4.02)
--------------------------------------------------------------------------------------
Mike wrote this song, and on the recording of the song mike played all the instruments
needed for the song. But didn't sing it, like some other guy says I mean what is he deaf,
do you know what Billie Joe sounds Like?

Verse (the bit where the lyrics come in)
G|------------------------------------------------------------------------------|
D|------------------------------------------------------------------------------|
A|-5-5-5-5-5-5-5-5--------------------------------------------------------------|
E|------------------5-5-5-5-5-5-5-5--3-3-3-3-3-3-3-3--5-5-5-5-5-5-5-5-----------|
PM ******************************************************************

G|------------------------------------------------------------------------------|
D|------------------------------------------------------------------------------|
A|-5-5-5-5-5-5-5-5--------------------------------------------------------------|
E|------------------5-5-5-5-5-5-5-5--3-3-3-3-3-3-3-3--5-5-5-5-5-5-5-5-----------|
PM ******************************************************************

e|------------------------------------------------------------------------------|
G|------------------------------------------------------------------------------|
D|------------------------------------------------------------------------------|
A|-5-5-5-5-5-5-5-5--------------------------------------------------------------|
E|------------------5-5-5-5-5-5-5-5--3-3-3-3-3-3-3-3--5-5-5-5-5-5-5-5-----------|
PM ******************************************************************

G|------------------------------------------------------------------------------|
D|------------------------------------------------------------------------------|
A|-5-5-5-5-5-5-5-5--------------------------------------------------------------|
E|------------------5-5-5-5-5-5-5-5--3-3-3-3-3-3-3-3--5-5-5-5-5-5-5-5-----------|
PM ******************************************************************

Chorus
G|------------------------------------------------------------------------------|
D|------------------------------------------------------------------------------|
A|------------------------------------------------------------------------------|
E|-3-3-3-3-3-3--5-5-5-5-5-5--3-3-3-3-3-3--5-5-5-5-5-5--3-3-3-3-3-3--5-5-5-5-5-5-|
PM ****************************************************************************

G|------------------------------------------------------------------------------|
D|------------------------------------------------------------------------------|
A|-5-5-5-5-5-5-5-5-5-5-5-5------------------------------------------------------|
E|------------------------------------------------------------------------------|
PM ************************

Order

Verse
Chorus
Verse



--------------------------------------------------------------------------------------
IV. Rock and Roll girlfriend (5.23)
--------------------------------------------------------------------------------------
Tre wrote and on the recording played the drums for it and lead guitar, and he sings it.
Im not sure who plays the piano on this track but I think it is the producer of the album

Intro
G|------------------------------------------------------------------------------|
D|------------------------------------------------------------------------------|
A|--5~~---7~~-------------------------------------------------------------------|
E|------------------------------------------------------------------------------|

Verse
G|-------------------------------------------------------------------------------|
D|-------------------------------------------------------------------------------|
A|--------------------------5-5-5-5-5-5-5-5-5-5-5-5-5----------------------------|
E|-5-5-5-5-5-5-5-5-5-5-5-5-----------------------------5-5-5-5-5-5-5-5-5-5-5-5-5-|

G|------------------------------------------------------------------------------|
D|------------------------------------------------------------------------------|
A|-7-7-7-7-7-7-7-7-7-7-7-7------------------------------------------------------|
E|------------------------------------------------------------------------------|

Outro
G|------------------------------------------------------------------------------|
D|------------------------------------------------------------------------------|
A|------------------------------------------------------------------------------|
E|-3--5--3--5----3--5--3--5----3--5--3--5-----3~--5~--3~--5---------------------|

Order

Intro
Verse x3
Outro




--------------------------------------------------------------------------------------
V. We're Coming Home Again part 1 (6.06)
--------------------------------------------------------------------------------------
Steve Gray (reizig@gmail.com) split this song into two parts so, I will too

Intro
G|-------------------------------------|----------------------------------------|
D|-------------------------------------|----------------------------------------|
A|-5-5-x-x-x--5-5-x-x-x----------------|-5-5-x-x-x--5-5-x-x-x-------------------|
E|-----------------------7-7-7-7--3--5-|-----------------------7-7-7-7--3--5----|

G|-------------------------------------|----------------------------------------|
D|-------------------------------------|----------------------------------------|
A|-5-5-x-x-x--5-5-x-x-x----------------|-5-5-x-x-x--5-5-x-x-x-------------------|
E|-----------------------7-7-7-7--3--5-|-----------------------7-7-7-7--3--5----|

Verse
G|---------------------------------------------------|---------------------------|
D|---------------------------------------------------|---------------------------|
A|---------------------------------------------------|--------5-5-5-5------------|
E|---8--7-----8--7--3-3-3-3-3-3-3-3--5-5-5-5-5-5-5-5-|--8--7-----------5--3--5---|

Chorus
G|----------------------------------|--------------------------|------------------|
D|----------------------------------|--------------------------|------------------|
A|----------------------------------|--------------------------|--------------7-7-|
E|-3-3-3-3-3-3-3-3--5-5-5-5-5-5-5-5-|-3-3--5-5--10-10--5-5-5-5-|-3-3--5-5-7-7-----|

Outro
G|------------------------------------------------------------------------------|
D|------------------------------------------------------------------------------|
A|-5----------------------------------------------------------------------------|
E|----5-------------------------------------------------------------------------|

Order

Intro
Verse
Chorus
Outro
  development and support by
dmitry ivanov