rock
 
|tablatures   |lyrics   |discussion forums   |more tabs @ XGuitar.com

Green Day tabs

Holiday bass tab

By: TaTu

Intro 2X
G|-------------|
D|-------------|
A|-8>-4>----6>-|
E|-------4>----|

Verse 2X
G|-------------|-------------|----|
D|-------------|-------------|----|
A|-8>-4>----6>-|-8>-4>----3>-|-3>-|
E|-------4>----|-------4>----|----|

Chorus
G|-----------|-----------|
D|-----------|-----------|
A|---4>---6>-|---4>---3>-|
E|-1>---4>---|-1>---4>---|

Verse 2X
G|-------------|-------------|----|
D|-------------|-------------|----|
A|-8>-4>----6>-|-8>-4>----3>-|-3>-|
E|-------4>----|-------4>----|----|

Chorus
G|-----------|-----------|
D|-----------|-----------|
A|---4>---6>-|---4>---3>-|
E|-1>---4>---|-1>---4>---|

Bridge 2X
G|------------|-----------|
D|------------|-----------|
A|-------4-6--|-------638-|
E|-1>-4>--6-6-|-1>-4>-----|

Guitar solo
G|-----------------|----------------|
D|-3>--------------|-3>-------------|
A|----4>----8*/10*-|----4>---3*/13*-|
E|-------4>--------|-------4>-------|

Bass solo 6X
G|------------|-----------|
D|------------|-----------|
A|-------4-6--|-------638-|
E|-1>-4>--6-6-|-1>-4>-----|

Pre Chorus
G|---|
D|---|
A|-3>|
E|---|

Chorus
G|-----------|-----------|
D|-----------|-----------|
A|---4>---6>-|---4>---3>-|
E|-1>---4>---|-1>---4>---|

Outro
G|--------|
D|--------|
A|-3*/13*-|
E|--------|

End
G|------------|-----------|
D|------------|-----------|
A|-------4-6--|-------638-|
E|-1>-4>--6-6-|-1>-4>-----|
  development and support by
dmitry ivanov