rock
 
|tablatures   |lyrics   |discussion forums   |more tabs @ XGuitar.com

Green Day tabs

Haushinka bass tab

  BTAB: Haushinka       

Artist: Green Day

 Album: .nimrod

Author: Rattman (jratt0@hotmail.com)



**Padrino's Bass Tab Exclusive!**



Verse:

           [just D for a long time]     "Its too..."

G-------------------------------------|-------------------------------

D-------------------------------------|-------------------------------

A-3h5-5-5-5-5-5-5-5-5-5-5-5-5-5-5-5-5-|-3-3-3-3-3-3-3-3---------------

E-------------------------------------|-----------------3-3-3-3-3-3-3-



Chorus:            repeats 3x last time through

G---------------|----------|

D---------------|----------|

A-5-5-3-3-------|----------|

E---------3-3-3-|1-1-1-1-3-|



"Waiting for..."    Rhythm Solo       Lead Guitar Solo

G-----------------|-----------------|---------------------------------

D-----------------|-----------------|---------------------------------

A-----------------|-------5-5-5-----|-1-1-1-1-1-1-1-1-0-0-0-0-0-0-0-0-

E-3-3-3-3-3-3-3-3-|-5-5-5-------3-3-|---------------------------------



Ending:

G--------------------------------------------------------------------

D--------------------------------------------------------------------

A--------------------------------------------------------------------

E-1-1-1-1-3-5~-------------------------------------------------------



Taken from Padrino's Bass Tab Archive: http://members.xoom.com/jszalma/
  development and support by
dmitry ivanov