rock
 
|tablatures   |lyrics   |discussion forums   |more tabs @ XGuitar.com

Green Day tabs

Green Day guitar tab


Date: Wed, December 30 1998
From: Peter Ferragine (pferragine@interhop.net)
Group: Green Day
Album: 1039/smoothed out slappy hours
Released: 1990 lookout records
Track: 5
Title: green day

: - let ring


intro 

|------------------|
|------------------|
|-4---1---7---4:---|
|-4---2---7---4:---|
|-2---2---5---2:---|
|-----0------------|

pre verse/chorus

|-----------------------------------------|
|-----------------------------------------|
|-----------1-1-1-1-1-4-4-4-4-4-4-4-4-4-4-|
|-6-6-6-6-6-2-2-2-2-2-4-4-4-4-4-4-4-4-4-4-|
|-6-6-6-6-6-2-2-2-2-2-2-2-2-2-2-2-2-2-2-2-|
|-4-4-4-4-4-0-0-0-0-0---------------------|

verse

|-------------------------------------------------------------------------
|-------------------------------------------------------------------------
|-9-9-9-9-9-9-7-7-7-7-7-7-6-6-6-6-6-6-4-4-4-4-4-4-------------------------
|-9-9-9-9-9-9-7-7-7-7-7-7-6-6-6-6-6-6-4-4-4-4-4-4-4-4-4-4-4-4-7-7-7-7-7-7-
|-7-7-7-7-7-7-5-5-5-5-5-5-4-4-4-4-4-4-2-2-2-2-2-2-4-4-4-4-4-4-7-7-7-7-7-7-
|-------------------------------------------------2-2-2-2-2-2-5-5-5-5-5-5-

 -------------------------|
 -------------------------|
 -1-1-1-1-1-1-1-1-1-1-1-1-|
 -2-2-2-2-2-2-2-2-2-2-2-2-|
 -2-2-2-2-2-2-2-2-2-2-2-2-|
 -0-0-0-0-0-0-0-0-0-0-0-0-|

outro

|---------------------------------------|
|---------------------------------------|
|-9-9-9-9-7-7-7-7-6-6-6-6-4-4-4-4-------|
|-9-9-9-9-7-7-7-7-6-6-6-6-4-4-4-4-7:----|
|-7-7-7-7-5-5-5-5-4-4-4-4-2-2-2-2-7:----|
|---------------------------------5:----|

lyrics

a small cloud has fallen the white mist hits the ground
my lungs comfort me with joy vegging on one detail
the rest just crowds around my eyes itch of burning red
picture sounds of moving insects so surreal
lay around looks like I found something new
laying in my bed i think i'm in left field
i picture someone, i think it's you you're standing so damn close
my body begins to swell why does 1 + 1 make 2
  development and support by
dmitry ivanov