rock
 
|tablatures   |lyrics   |discussion forums   |more tabs @ XGuitar.com

Green Day tabs

Green Day bass tab

Song: Green Day
Artist: Green Day
Album: 39/Smooth

Thanks to last guy who put up the tab, it helped me get the basic feel
of the song.

Intro
G---------------------------------------------------
D--2---------------------------------------2-0-2h4--
A-----0--5--2---------------------2-2-2-2-----------
E-----------------4-4-4-4-0-0-0-0-------------------

Verse (Let the single notes {-9-,-0-} ring)
G-----------------------------------4---------------------
D----------------------4--------2h4-----------------------
A--7-7-7-7-5-5-5-5-4-4---4/2-2---------9---0---7-7-7-7-7--
E---------------------------------------------------------

Chorus
G--------------------------------------------------------------
D--------------------------------------------------------------
A------------------2-2-2-2-2-2------------------2-2-2-2-0-2-2--
E--4-4-4-4-0-0-0-0--------------4-4-4-4-0-0-0-0----------------

Solo
G---------------------------------------------------
D----------------------4----------------------------
A--7-7-7-7-5-5-5-5-4-4---4/2-2---9---0---7-7-7-7-7--
E---------------------------------------------------

Outro (Let the last note ring)
G----------------------------------4-----
D----------------------4-------2h4-------
A--7-7-7-7-5-5-5-5-4-4---4/2-2--------7--
E----------------------------------------

Intro X1
Chorus X1
Verse X2
Chorus X2
Verse X3
Chorus X2
Verse X2
Solo X2
Verse X2
Chorus X2
Outro X1

This tab was created by Christian Mangs. Email me at:
Shadow145@hotmail.com
  development and support by
dmitry ivanov