rock
 
|tablatures   |lyrics   |discussion forums   |more tabs @ XGuitar.com

Green Day tabs

Good Riddance (Time Of Your Life) bass tab

"Good Riddance (Time Of Your Life)" - Green Day
There is no bass in this song but the tab just follows the guitar

Verse
G|-----------------------------------------|
D|-----------------------------------------|
A|---------------------3-3-3-(3)-5-5-5-(5)-|
E|-3-3-3-(3)-3-3-3-(3)---------------------|

Chorus                                     2
G|-----------------------------------------|
D|-----------------------------------------|
A|-----------5-5-5-(5)-3-3-3-(3)-----------|
E|-0-0-0-(0)---------------------3-3-3-(3)-|
                       2
  ---------------------|-------------|
  ---------------------|-------------|
  ---------------------|-5-5-5-5-(5)-|
  -0-0-0-(0)-3-3-3-(3)-|-------------|
  development and support by
dmitry ivanov