rock
 
|tablatures   |lyrics   |discussion forums   |more tabs @ XGuitar.com

Green Day tabs

Going To Pasalacqua guitar tab


Date: Sat, January 9 1999
From: Peter Ferragine (pferragine@interhop.net)
Group: Green Day
Album: 1039/smoothed out slappy hours
Released: 1990 lookout records
Track: 6
Title: going to pasalacqua

: - let ring


intro

|----------------|
|-2-2:-3-2-3-2-2-|
|-2-2:---------2-|
|-2-2:---------2-|
|----------------|
|----------------|

verse

|-----------------2-2-2-2-2-2-2-2-------------------------|
|-----------------3-3-3-3-3-3-3-3-2-2-2-2-2-2-2-2-2-2-2-2-|
|-1-1-1-1-1-1-1-1-2-2-2-2-2-2-2-2-2-2-2-2-2-2-2-2-2-2-2-2-|
|-2-2-2-2-2-2-2-2-0-0-0-0-0-0-0-0-2-2-2-2-2-2-2-2-2-2-2-2-|
|-2-2-2-2-2-2-2-2-----------------------------------------|
|-0-0-0-0-0-0-0-0-----------------------------------------|

chorus

|-2-2-2-2-2-2-------------------------------------2-2-2-2-2-2-2-2-2-2-2-2-
|-3-3-3-3-3-3-2-2-2-2-2-2-------------------------3-3-3-3-3-3-3-3-3-3-3-3-
|-2-2-2-2-2-2-2-2-2-2-2-2-1-1-1-1-1-1-1-1-1-1-1-1-2-2-2-2-2-2-2-2-2-2-2-2-
|-0-0-0-0-0-0-2-2-2-2-2-2-2-2-2-2-2-2-2-2-2-2-2-2-0-0-0-0-0-0-0-0-0-0-0-0-
|-------------------------2-2-2-2-2-2-2-2-2-2-2-2-------------------------
|-------------------------0-0-0-0-0-0-0-0-0-0-0-0-------------------------

 -------------------------|
 -2-2-2-2-2-2-2-2-2-2-2-2-|
 -2-2-2-2-2-2-2-2-2-2-2-2-|
 -2-2-2-2-2-2-2-2-2-2-2-2-|
 -------------------------|
 -------------------------|

second verse 

|-----------------------------------------------2-2-2-2-2-2-2-2-2-2-2----|
|-2-2-2-2-2-2-----------------------------------3-3-3-3-3-3-3-3-3-3-3--2-|
|-2-2-2-2-2-2-1-1-1-1-1-1-----------------------2-2-2-2-2-2-2-2-2-2-2--2-|
|-2-2-2-2-2-2-2-2-2-2-2-2-4-4-4-4-4-4-4-4-4-4-4-0-0-0-0-0-0-0-0-0-0-0--2-|
|-------------2-2-2-2-2-2-4-4-4-4-4-4-4-4-4-4-4--------------------------|
|-------------0-0-0-0-0-0-2-2-2-2-2-2-2-2-2-2-2--------------------------|

bridge

|----2-----2-----2-----2-----2-----2-----2-|
|-2--3--2--3--2--3--2--3--2--3--2--3--2--3-|
|-2--2--2--2--2--2--2--2--2--2--2--2--2--2-|
|-2--0--2--0--2--0--2--0--2--0--2--0--2--0-|
|------------------------------------------|
|------------------------------------------|

outro

|-------------------2-2-2------|
|-2-2-2-------------3-3-3------|
|-2-2-2-1-1-1-------2-2-2-2:---|
|-2-2-2-2-2-2-4-4-4-0-0-0-2:---|
|-------2-2-2-4-4-4-------2:---|
|-------0-0-0-2-2-2------------|

lyrics

here we go again infatuation 
touches me just when i thought that it would end
oh but then again it seems much more than that but 
i'm not sure exactly what you're thinking
i toss and turn all night thinking of your ways of effection
but to find that it's not different at all
i throw away my past mistakes and contemplate my future
that's when i say... what the hey?!?
would i last forever? you and i together
hand in hand we run away (far away)
i'm in for nasty weather but i'll take whatever 
you can give that comes my way (far away)
  development and support by
dmitry ivanov