rock
 
|tablatures   |lyrics   |discussion forums   |more tabs @ XGuitar.com

Green Day tabs

Going To Pasalacqua bass tab

		Going to Pasalaqua 
		    by Green Day
            from the album 1039 Smoothed Out/Slappy Hours

|-----------------------------------------------------------------------------
|-----------------------------------------------------------------------------
|---------------------5--5--5--5--5-------------------------------------------
|---0--0--0--0--0--------------------5--5--5--5--5--5--5--5--5--5-------------

|-----------------------------------------------------------------------------
|-----------------------------------------------------------------------------
|5--5--5--5--5------------------------------------5--5--5--5--5--5--5--5--5--5--5
|-----------------5--5--5--5--5--0--0--0--0--0-----------------------------------

|----------------------------------------------------------------------------
|----------------------------------------------------------------------------
|----------------------------------------------------------------------------
|----5--5--5--5--5-----------------------------------------------------------

|----------------------------------------------------------------------------
|----------------------------------------------------------------------------
|--------------------5--5--5--5--5--5--5---------------------5--5--5--5--5--5--5-
|5--5--5--5--5--5--5---------------------5--5--5--5--5--5--5---------------------

Interpretation by Dave Miller ~ dwm3@po.cwru.edu
  development and support by
dmitry ivanov