rock
 
|tablatures   |lyrics   |discussion forums   |more tabs @ XGuitar.com

Green Day tabs

Give Me Novacaine bass tab

X = muted note
~ = hold note

Bass comes in during chorus at 0:44

Chorus:
G---------------------------------------------------------------------
D---------------------------------------------------------------------
A-55555-----------------------------55555-----------------------------
E------------------5555555555555555------------------5555555555555555-

G------------------------------------------------------------------------
D------------------------------------------------------------------------
A-5555555555555555------------------2222222222222222---------------------
E------------------2222222222222222------------------000000000-----------

Verse:
G-----------------------------------------------------------------
D-----------------------------------------------------------------
A---------------------------------2--22--22--22-2----------------- play 3x
E-5--55--55--55-5-2--22--22--22-2-----------------0--00--00--00-0-

Chorus:
G---------------------------------------------------------------------
D---------------------------------------------------------------------
A-55555-----------------------------55555-----------------------------
E------------------5555555555555555------------------5555555555555555-

G------------------------------------------------------------------------
D------------------------------------------------------------------------
A-5555555555555555------------------2222222222222222---------------------
E------------------2222222222222222------------------000000000xxxxxxx----

Bridge Lead-in:
G----------------------------------
D----------------------------------
A----------------------------------
E-55555555555555555555555555555555-


Bridge:
G---------------------------------------------------------------------
D---------------------------------------------------------------------
A---------------------------------------------------------------------
E-2222222222222222-5555555555555555-2222222222222222-5555555555555555-

G---------------------------------------------------------------------
D---------------------------------------------------------------------
A-----------------------------------2222222222222222------------------
E-2222222222222222-5555555555555555------------------0000000000000000-

Chorus:
G---------------------------------------------------------------------
D---------------------------------------------------------------------
A-55555-----------------------------55555-----------------------------
E------------------5555555555555555------------------5555555555555555-

G------------------------------------------------------------------------
D------------------------------------------------------------------------
A-5555555555555555------------------2222222222222222---------------------
E------------------2222222222222222------------------000000000-----------

Outro:
G-----------------------------------------------------------------
D-----------------------------------------------------------------
A---------------------------------2--22--22--22-2-----------------
E-5--55--55--55-5-2--22--22--22-2-----------------0--00--00--00-0-

G------------------
D------------------
A------------------
E-5~---------------
  development and support by
dmitry ivanov