rock
 
|tablatures   |lyrics   |discussion forums   |more tabs @ XGuitar.com

Green Day tabs

Geek Stink Breath guitar tab


Date: Tues, July 6 1999
From: Peter Ferragine (pferragine@interhop.net)
Group: Green Day
Album: Insomniac
Released: 1995 reprise records
Track: 4
Title: geek stink breath

pm - palm mute


intro

|---------------|
|---------------|
|-----------4-4-|
|-4-4-2-2-2-4-4-|
|-4-4-2-2-2-2-2-|
|-2-2-0-0-0-----|

verse
pm___|  |___|  |___|  |___| 
|-----------------------------|
|-----------------------------|
|-----------------------------|
|-4-4-4--2-2-2--4-4-4--2-2-2--|
|-4-4-4--2-2-2--4-4-4--2-2-2--|
|-2-2-2--0-0-0--2-2-2--0-0-0--|

chorus

|-----------------------------|
|-----------------------------|
|-----------------------------|
|-7-7-7-2-2-2-2-7-7-7-2-2-2-2-|
|-7-7-7-2-2-2-2-7-7-7-2-2-2-2-|
|-5-5-5-0-0-0-0-5-5-5-0-0-0-0-|

|-----------------------------|
|-----------------------------|
|-----------------------------|
|-4-4-4-2-2-2-2-4-4-4-2-2-2-2-|
|-4-4-4-2-2-2-2-4-4-4-2-2-2-2-|
|-2-2-2-0-0-0-0-2-2-2-0-0-0-0-|

lyrics

i'm on a mission i made my decision
to lead a path of self-destruction
a slow progression killing my complexion
and it's rotting out my teeth
i'm on a roll, no self control
i'm blowing off steam with meth amphetamine
don't know what i want that's all that i've got
and i'm picking scabs off my face
every hour my blood is turning sour
and my pulse is beating out of time
i found a treasure filled with sick pleasure
and it sits on a thick white line
i'm on a mission i've got no decision 
like a cripple running a rat race
wish in one hand and shit in the other
and see which one gets filled first
  development and support by
dmitry ivanov