rock
 
|tablatures   |lyrics   |discussion forums   |more tabs @ XGuitar.com

Green Day tabs

Geek Stink Breath bass tab

From: Wolfman672@aol.com
Date: Thu, 28 Dec 1995 15:51:51 -0500
Subject: Geek Stink Breath

Geek Stink Breath - Btab

Intro
G
D
A
E-2-2- (guitar) -2-2- (G) -2-2- (G) -2-2- (G, Slide)

Verse
G
D
A        1-2-       2-1
E-2-2-       0-0-

Chorus pt.1
G
D
A          
E-2-2-2-0-0

Chorus pt.2
G
D
A
E-5-5-5-5-5-0-0-0
(Go to verse then to chorus pt.1 and 2 then) 

Bridge
G
D
A                -2
E-2-2-2-0-0    -0

Verse 3
G
D
A
E-2-2-2-2-0-0-0-0
(Chorus pt 1 and 2, to brige then end on 1st tab)

From: amagnan@bonita.cerf.fred.org
Date: Sun,  8 Oct 95 11:28 pst
Subject: BTAB: geek_stink_breath  by green_day

This is the song off green day's insomniac album that is on MTV and was
played on saturday night live.  It's called geek stink breath
    this is the verse, keep playing this all the way thru                   
  
G-|-------------------------------------------------------------------------
D-|-------------------------------------------------------------------------
A-|---32--23----------------------------------------------------------------
E-|-33--11------------------------------------------------------------------
                                                                            
  
this is the first half of the chorus
G-|-------------------------------------------------------------------------
D-|-------------------------------------------------------------------------
A-|-------------------------------------------------------------------------
E-|-66-0-111----------------------------------------------------------------
Keep playing for the first half then move to this for the second half of the
chorus:
G-|-------------------------------------------------------------------------
D-|-------------------------------------------------------------------------
A-|-------------------------------------------------------------------------
E-|-33-0-111----------------------------------------------------------------
then back to the verse.  any turnarounds or scales or anything special like
that that is used may not be in here, this is just the raw tab.
Please email me if you have corrections or requests for green day bass tabs
 
 

 ---------------- 32.39.28N, 117.01.45W 
This E-Mail was written by Mushroom Head... He likes these quotes:
"All yer time gets wasted in my daze..." - Billie Joe Armstrong
"I hate it when people hate pot, that makes me mad!" - Tre Cool
  development and support by
dmitry ivanov